Cifra Club

Sweat In Bullet

Simple Minds

Tab de bajo: Principal
|ntro and versus                  Thrown |n occ.
G|----------------|------------------||-------------|
D|--------7-(7)-5-|--5-H7------------||-------------|
A|----------------|------------------||-------------|
E|--5-5-5---------|-------5-5-5-7-8--||---5/85-----|

 Chorus

G|--------|--------------|-------9-------9--||
D|--125--|--------------|-----9------9-----||
A|--------|--------------|--7------7--------||
E|--------|--8-8-8-5-5-5-|------------------||

G|--------------|-------9-------9--|--9/12-9/13------|
D|--------------|-----9------9-----|-----------------|
A|--------------|--7------7--------|------------0----|
E|--8-8-8-5-5-5-|------------------|-----------------|



| /  sl|de up
|   sl|de down
| h  hammer-on
| p  pull-off
| ~  v|brato
| +  harmon|c
| x  Mute note
00:00 / 00:00
Otros videos de esta canción
Repetir
Otros videos de esta canción
Composición de Simple Minds
Colaboración y revisión:
  • Vania santo
16 vistas

0 comentarios

Ver todos los comentarios

¿Lograste tocar?

0 Tocaron 0 Aún no

¡Graba un video tocando Sweat In Bullet y envíanoslo!

00:00 / 00:00
OK