Cifra Club

If You Don't Know Me By Now

Simply Red

Cifrado: Principal (guitarra y guitarra eléctrica)
Selo Cifra Club: esta cifra foi revisada para atender aos critérios oficiais da nossa Equipe de Qualidade.
tono: Bb (forma dos acordes no tom de A) Capotraste na 1ª casa
[Intro] A  C#m7  E4/B  E/B  D/A  Dm

[Tab - Dedilhado Intro]

Parte 1 de 2
     A             C#m7
E|--------------------------------|
B|---2----2-2----2-5----5-5----5--|
G|---2----2-2----2-4----4-4----4--|
D|-2----2---2--2---6--6---6--6----|
A|----------0------4------4-------|
E|--------------------------------|

Parte 2 de 2
   E4/B  E/B  D/A           Dm
E|-5-----4----2-2----2----2-1-----|
B|-5-----5----3-3----3----3-3-----|
G|-4-----4----2-2--2----2---2-----|
D|--------------------------0-----|
A|--------------------------------|
E|--------------------------------|

E|---1-1--------------------------|
B|---3-3---0----------------------|
G|-2---2-2------------------------|
D|-----0--------------------------|
A|--------------------------------|
E|--------------------------------|

[Tab - Dedilhado Refrão]

Parte 1 de 3
   A              C#m7
E|--------------------------------|
B|-2----2--2----2-5----5-5----5---|
G|-2----2--2----2-4----4-4----4---|
D|-2--2----2--2---6--6---6--6-----|
A|-0-------0------4------4--------|
E|--------------------------------|

Parte 2 de 3
   E/B  D/A    Dm
E|-4----2---2--1----2-------------|
B|-5----3---3--3----3-------------|
G|-4----2-2----2--2---------------|
D|-------------0------------------|
A|--------------------------------|
E|--------------------------------|

Parte 3 de 3
   Dm
E|-1---1-1----1-------------------|
B|-3---3-3----3-------------------|
G|-2-2---2--2---------------------|
D|-0-----0------------------------|
A|--------------------------------|
E|--------------------------------|

[Refrão]

A                        C#m7
If you don't know me by now
        E/B  D/A                Dm
You will    never never never know me
Dm
Uh... uh uh uh uh

[Tab - Dedilhado Primeira Parte]

Parte 1 de 8
   A9/F  A/E    A      C#m7
E|--------------------------------|
B|-0-----2----2-2----2-5----5-5---|
G|-2-----2----2-2----2-4----4-4---|
D|-3-----2--2---2--2---6--6---6---|
A|--------------0------4------4---|
E|--------------------------------|

E|--------------------------------|
B|---5----------------------------|
G|---4----------------------------|
D|-6------------------------------|
A|--------------------------------|
E|--------------------------------|

Parte 2 de 8
   E/B  D/A
E|-4----2-2----2------------------|
B|-5----3-3----3------------------|
G|-4----2-2--2--------------------|
D|--------------------------------|
A|--------------------------------|
E|--------------------------------|

Parte 3 de 8
   A/E  Bm/F#
E|--------------------------------|
B|-2----3-------------------------|
G|-2----4-------------------------|
D|-2----4-------------------------|
A|--------------------------------|
E|--------------------------------|

Parte 4 de 8
   E  E4(6)  E7
E|--------------------------------|
B|-0--2------3--------------------|
G|-1--2------4--------------------|
D|-2--2------2--------------------|
A|--------------------------------|
E|--------------------------------|

Parte 5 de 8
   A              C#m7
E|--------------------------------|
B|-2----2--2----2-5----5-5----5---|
G|-2----2--2----2-4----4-4----4---|
D|-2--2----2--2---6--6---6--6-----|
A|-0-------0------4------4--------|
E|--------------------------------|

Parte 6 de 8
   E/B  D/A
E|-4-4--2-2----2------------------|
B|-5-5--3-3----3------------------|
G|-4-4--2-2--2--------------------|
D|--------------------------------|
A|--------------------------------|
E|--------------------------------|

Parte 7 de 8
   A/E  Bm/F#
E|--------------------------------|
B|-2----3-------------------------|
G|-2----4-------------------------|
D|-2----4-------------------------|
A|--------------------------------|
E|--------------------------------|

Parte 8 de 8
   E  E4(6)  E7
E|--------------------------------|
B|-0--2------3--------------------|
G|-1--2------4--------------------|
D|-2--2------2--------------------|
A|--------------------------------|
E|--------------------------------|

[Primeira Parte]

A9/F  A/E  A
           All the things
C#m7                        E/B  D/A
    That we've been through
                         A/E  Bm/F#
You should understand me
       E      E4(6)  E7
Like I understand   you

A                              C#m7
 Now girl I know the difference
                    E/B  D/A
Between right and wrong
                         A/E  Bm/F#
I ain't gonna do nothing
     E            E4(6)  E7
To break up your happy  home

[Tab - Dedilhado Ponte 1]

Parte 1 de 3
   C7M         F7M
E|--------------------------------|
B|---5-----5-----1-----1----------|
G|-------4-----------2------------|
D|--5--5--------2--2--------------|
A|-3------------------------------|
E|-------------1------------------|

Parte 2 de 3
   Dm4
E|--3---8--3----------------------|
B|----3---------------------------|
G|--------------------------------|
D|-0------0-----------------------|
A|--------------------------------|
E|--------------------------------|

Parte 3 de 3
   E4  E  E4  E5  F#5  G#5-
E|--------------------------------|
B|-0---0--0-----------------------|
G|-2---1--2---4---6----7----------|
D|-2---2--2---2---4----6----------|
A|--------------------------------|
E|--------------------------------|

[Ponte 1]

C7M                     F7M
   Oh I don't get so excited
                                   Dm4
When I come home a little late at night'
     Dm4                     E4  E  E4
Cos we only act like children
        E5     F#5      G#5-
When we argue fuss and fight

[Tab - Dedilhado Refrão]

Parte 1 de 2
   A              C#m7
E|--------------------------------|
B|-2----2--2----2-5----5-5----5---|
G|-2----2--2----2-4----4-4----4---|
D|-2--2----2--2---6--6---6--6-----|
A|-0-------0------4------4--------|
E|--------------------------------|

Parte 2 de 2
   D     Dm
E|-------1----1-1----1-1----------|
B|-3---3-3----3-3----3-3---0------|
G|-2---2-2--2---2--2---2-2--------|
D|-4-4---0------0------0----------|
A|-5------------------------------|
E|--------------------------------|

[Refrão]

A                        C#m7
If you don't know me by now
          D                  Dm
You will never never never know me

Uh... uh uh uh uh

[Tab - Dedilhado Refrão]

Parte 1 de 2
   A              C#m7
E|--------------------------------|
B|-2----2--2----2-5----5-5----5---|
G|-2----2--2----2-4----4-4----4---|
D|-2--2----2--2---6--6---6--6-----|
A|-0-------0------4------4--------|
E|--------------------------------|

Parte 2 de 2
   D     Dm
E|-------1----1-1----1-1----1-----|
B|-3---3-3----3-3----3-3----3-----|
G|-2---2-2--2---2--2---2--2-------|
D|-4-4---0------0------0----------|
A|-5------------------------------|
E|--------------------------------|

[Refrão]

A                        C#m7
If you don't know me by now
          D                  Dm
You will never never never know me
               E  E4(6)  E7
Uh... uh uh uh uh

[Tab - Dedilhado Segunda Parte]

Parte 1 de 8
   A9/F  A/E    A      C#m7
E|--------------------------------|
B|-0-----2----2-2----2-5----5-5---|
G|-2-----2----2-2----2-4----4-4---|
D|-3-----2--2---2--2---6--6---6---|
A|--------------0------4------4---|
E|--------------------------------|

E|--------------------------------|
B|---5----------------------------|
G|---4----------------------------|
D|-6------------------------------|
A|--------------------------------|
E|--------------------------------|

Parte 2 de 8
   E/B  D/A
E|-4-4--2-2----2------------------|
B|-5-5--3-3----3------------------|
G|-4-4--2-2--2--------------------|
D|--------------------------------|
A|--------------------------------|
E|--------------------------------|

Parte 3 de 8
   A/E  Bm/F#
E|--------------------------------|
B|-2----3-------------------------|
G|-2----4-------------------------|
D|-2----4-------------------------|
A|--------------------------------|
E|--------------------------------|

Parte 4 de 8
   E  E4(6)  E7
E|--------------------------------|
B|-0--2------3--------------------|
G|-1--2------4--------------------|
D|-2--2------2--------------------|
A|--------------------------------|
E|--------------------------------|

Parte 5 de 8
   A              C#m7
E|--------------------------------|
B|-2----2--2----2-5----5-5----5---|
G|-2----2--2----2-4----4-4----4---|
D|-2--2----2--2---6--6---6--6-----|
A|-0-------0------4------4--------|
E|--------------------------------|

Parte 6 de 8
   E/B  D/A
E|-4-4--2-2----2------------------|
B|-5-5--3-3----3------------------|
G|-4-4--2-2--2--------------------|
D|--------------------------------|
A|--------------------------------|
E|--------------------------------|

Parte 7 de 8
   A/E  Bm/F#
E|--------------------------------|
B|-2----3-------------------------|
G|-2----4-------------------------|
D|-2----4-------------------------|
A|--------------------------------|
E|--------------------------------|

Parte 8 de 8
   E  E4(6)  E7
E|--------------------------------|
B|-0--2------3--------------------|
G|-1--2------4--------------------|
D|-2--2------2--------------------|
A|--------------------------------|
E|--------------------------------|

[Segunda Parte]

A9/F  A
       We've all got
C#m7                E/B  D/A
    Our funny moods
              A/E  Bm/F#
I've got mine
              E   E4(6)  E7
Woman you've got yours  too

A
 Just trust in me
C#m7                    E/B  D/A
    Like I trust in you
                               A/E  Bm/F#
As long as we've been together
              E  E4(6)  E7
It should be so  easy  to do

[Tab - Dedilhado Ponte 2]

Parte 1 de 3
   C7M         F7M
E|--------------------------------|
B|---5-----5-----1-----1----------|
G|-------4-----------2------------|
D|--5--5--------2--2--------------|
A|-3------------------------------|
E|-------------1------------------|

Parte 2 de 3
   Dm4
E|--3---8--3----------------------|
B|----3---------------------------|
G|--------------------------------|
D|-0------0-----------------------|
A|--------------------------------|
E|--------------------------------|

Parte 3 de 3
   E4  E  E4  E5  F#5  G#5-
E|--------------------------------|
B|-0---0--0-----------------------|
G|-2---1--2---4---6----7----------|
D|-2---2--2---2---4----6----------|
A|--------------------------------|
E|--------------------------------|

[Ponte 2]

C7M                           F7M
   Just get yourself together
                               Dm4
Or we might as well say goodbye
                          E4  E  E4
What good is a love affair
          E5       F#5    G#5-
When you can't see eye to eye oh

[Tab - Dedilhado Refrão]

Parte 1 de 2
   A              C#m7
E|--------------------------------|
B|-2----2--2----2-5----5-5----5---|
G|-2----2--2----2-4----4-4----4---|
D|-2--2----2--2---6--6---6--6-----|
A|-0-------0------4------4--------|
E|--------------------------------|

Parte 2 de 2
   D     Dm
E|-------1----1-1----1-1----------|
B|-3---3-3----3-3----3-3---0------|
G|-2---2-2--2---2--2---2-2--------|
D|-4-4---0------0------0----------|
A|-5------------------------------|
E|--------------------------------|

[Refrão]

A                        C#m7
If you don't know me by now
          D                  Dm
You will never never never know me
               E  E4(6)  E7
Uh... uh uh uh uh

[Tab - Dedilhado Refrão]

Parte 1 de 2
   A              C#m7
E|--------------------------------|
B|-2----2--2----2-5----5-5----5---|
G|-2----2--2----2-4----4-4----4---|
D|-2--2----2--2---6--6---6--6-----|
A|-0-------0------4------4--------|
E|--------------------------------|

Parte 2 de 2
   D     Dm
E|-------1----1-1----1-1----1-----|
B|-3---3-3----3-3----3-3----3-----|
G|-2---2-2--2---2--2---2--2-------|
D|-4-4---0------0------0----------|
A|-5------------------------------|
E|--------------------------------|

[Refrão]

A                        C#m7
If you don't know me by now
          D                  Dm
You will never never never know me
               E  E4(6)  E7
Uh... uh uh uh uh

[Tab - Dedilhado Final]

Parte 1 de 2
   A9/F  A/E    A      C#m7
E|--------------------------------|
B|-0-----2----2-2----2-5----5-5---|
G|-2-----2----2-2----2-4----4-4---|
D|-3-----2--2---2--2---6--6---6---|
A|--------------0------4------4---|
E|--------------------------------|

E|--------------------------------|
B|---5----------------------------|
G|---4----------------------------|
D|-6------------------------------|
A|--------------------------------|
E|--------------------------------|

Parte 2 de 2
   D     Dm     Dm6
E|-------1----1----1--------------|
B|-3---3-3----3---0---------------|
G|-2---2-2--2----2----------------|
D|-4-4---0------0-----------------|
A|-5------------------------------|
E|--------------------------------|

[Final]

A                        C#m7
If you don't know me by now
          D                  Dm
You will never never never know me
Dm
Uh
Otros videos de esta canción
    33 exhibiciones
      • ½ Tono
      • A
      • Bb
      • B
      • C
      • Db
      • D
      • Eb
      • E
      • F
      • F#
      • G
      • Ab
    • Agregar a la lista

    Afinação da cifra

    Afinador online

      Ops (: Contenido disponible solo en portugués.
      OK