Cifra Club

Thrill Me

Simply Red

Cifrado: Principal (guitarra y guitarra eléctrica)
Selo Cifra Club: esta cifra foi revisada para atender aos critérios oficiais da nossa Equipe de Qualidade.
tono: F
[Intro]
    G    Am7 Bb6
E|--------------|-----------------|
B|-----3--5--6--|-----------------|
G|-----3--5--7--|-----3-----------|
D|-----3--5--5--|--5-----5--3--5--|
A|-----5--7-----|-----------------|
E|--3--3--5--6--|-----------------|
                  OK

    G    Am7 Bb6
E|--------------|-----------------|
B|-----3--5--6--|-----------------|
G|-----3--5--7--|-----3-----------|
D|-----3--5--5--|--5-----5--3--5--|
A|-----5--7-----|-----------------|
E|--3--3--5--6--|-----------------|

Gm7
I'm the one who took you for granted
    G    Am7 Bb6
E|--------------|-----------------|
B|-----3--5--6--|-----------------|
G|-----3--5--7--|-----3-----------|
D|-----3--5--5--|--5-----5--3--5--| 2x
A|-----5--7-----|-----------------|
E|--3--3--5--6--|-----------------|
Gm7           Am7
I've made my mistakes
    G    Am7 Bb6
E|--------------|-----------------|
B|-----3--5--6--|-----------------|
G|-----3--5--7--|-----3-----------|
D|-----3--5--5--|--5-----5--3--5--|
A|-----5--7-----|-----------------|
E|--3--3--5--6--|-----------------|
Gm7
wake up let's not, break up

[Chorus]
Gm7         C                    Gm7
Thrill me, you've got a love so strong
Gm7        C                  Gm7
Thrill me, you really turn me on
Gm7        C                  Gm7
Thrill me, wait till tomorrow night
G       Gm7 G                               G7
Thrill, me  I'm gonna treat you right

[Verse]
Gm7                   C                Gm7
You said that I would never let you be alone
Gm7       C    Gm7                   C7
How many times have you been on your own
Gm7
Worked all the days to find the things you try to do
Gm7        Gm6              Gm7
If only my heart will never let you through
Gm7
Because you

[Chorus]
Gm7         C                    Gm7
Thrill me, you've got a love so strong
Gm7        C                    Gm7
Thrill me, you just can’t do me wrong
Gm7        C         Gm7
Thrill me, wait till tomorrow night
G       Gm7
Thrill, me  I'm gonna treat you right

[Instrumental]
Gm F6 Gm C Gm7 C Gm7 C Gm7 C G7
Am7 Bm7 Am7 D7 Am7 G6 Am7
Am7 D7 Am7 G6 Am7

[Bridge]
C        G     Gm
Feels so good
C
Your hands feel like silk down my back
Gmaj7
Come on, come on
Gm Em7 G7
          Oh Yeah!
C Gm Gm7
        Feel it, baby

[Verse]
Gm7
The truth is you've gone and left me on my own
Gm7       C    Gm7             C7          Gm7
How can I face the fact you're really gone
Gm7
Love was a phase we'd have to pray to make it true
C                Gm7                    Dm
If only my heart would've never let you through
Dm      Gm7
Because you

[Chorus]
Gm7         C                    Gm7
Thrill me, you've got a love so strong
Gm7        C                  Gm7
Thrill me, you really turn me on
Gm7        C                  G7
Thrill me, wait till tomorrow night
G           Gm7
Thrill, me  I'm gonna treat you right

[Outro]
Gm Em7 Gm7
          Oh Yeah!
C Gm Gm7
Otros videos de esta canción
    7 exhibiciones
      • ½ Tono
      • A
      • Bb
      • B
      • C
      • Db
      • D
      • Eb
      • E
      • F
      • F#
      • G
      • Ab
    • Agregar a la lista

    Afinação da cifra

    Afinador online

      Ops (: Contenido disponible solo en portugués.
      OK