Cifra Club

A puro dolor

Sin Bandera

Cifrado: Principal (guitarra y guitarra eléctrica)
tono: C#m
INTRO:

E|-----------------------------------------------------------------------|
B|-----------------------------------------------------------------------|
G|-4/7-77-4-5--5555/7-77-4-5--22-----------------------------------------|
D|--------------------------------55---3----22/5-------------------------|
A|-----------------------------------------------------------------------|
E|-----------------------------------------------------------------------|

E|--------------3-----------------------3--------------------------------|
B|-----3-5--55----6-5--3-------3-5--55---65-3----3-----------------------|
G|-55--------------------5--55---------------5---------------------------|
D|-----------------------------------------------------------------------|
A|-----------------------------------------------------------------------|
E|-----------------------------------------------------------------------|

E|---3333--------|
B|-5-----65-3----|
G|------------5--| (2 veces)
D|---------------|
A|---------------|
E|---------------|

E|-----------------------------333--------------333----------------------|
B|-----3-5-3-------3-5----55-------6-5-33-5--55-----65-33-5--------------|
G|-4-5-------5--55------------------------------------------5------------|
D|-----------------------------------------------------------------------|
A|-----------------------------------------------------------------------|
E|-----------------------------------------------------------------------|

E|---------------------------|
B|-----3-5-3-----------------|
G|-4-5-------5---44--2-44/5--|
D|---------------------------|
A|---------------------------|
E|---------------------------|

E|---3-3-3--1-0----------------------------------------------------------|
B|-0------------3-1-----1-3-3/5-3-1---------1-1--------1-1---------------|
G|--------------------2---------------0-0/2--------2-0-------0-----------|
D|-------------------------------------------------------------3---------|
A|-----------------------------------------------------------------------|
E|-----------------------------------------------------------------------|

E|--------------------------|
B|-----3-5-3----------------|
G|-4-5-------5---44--2-44/5-|
D|--------------------------|
A|--------------------------|
E|--------------------------|

E|-----------------------------------------------------------------------|
B|------3-33----------3--33--3333--5-------------------------------------|
G|-5555-----4-5--555-----------------------------------------------------|
D|-----------------------------------5-4-4/7-77-55-3-2-2/5---------------|
A|-----------------------------------------------------------------------|
E|-----------------------------------------------------------------------|

E|--------------3-----------------------3--------------------------------|
B|-----3-5--55----6-5--3-------3-5--55---65-3----3-----------------------|
G|-55--------------------5--55---------------5---------------------------|
D|-----------------------------------------------------------------------|
A|-----------------------------------------------------------------------|
E|-----------------------------------------------------------------------|


(aqui biene el final...)

E|-5-3---------------------|
B|-----5-6-5---3-5-3----3--|
G|--------------------5----|
D|-------------------------| (3 veces y cada vez mas rapido)
A|-------------------------|
E|-------------------------|

E|----------3---3--5----|
B|-3--5-6-5---5---------|
G|----------------------|
D|----------------------|
A|----------------------|
E|----------------------|

E|---------55------------------|
B|-6/7--7------88--77--55------|
G|-------------------------7---|
D|-----------------------------| (2 veces)
A|-----------------------------|
E|-----------------------------|

E|----------------------------55-------------------55--------------------|
B|------5-7-5-------5--77--7-------88-77-55-7---7-----88-77-55-7---------|
G|-6-7--------7--77----------------------------------------------7-------|
D|-----------------------------------------------------------------------|
A|-----------------------------------------------------------------------|
E|-----------------------------------------------------------------------|

E|-----------------------------------------------------------------------|
B|------5-7-5------------------------------------------------------------|
G|-6-7--------7--66--4-66/7----------------------------------------------|
D|-----------------------------------------------------------------------|
A|-----------------------------------------------------------------------|
E|-----------------------------------------------------------------------|

Es muy facil...
espero les guste.
ns vms
bye! leirus
00:00 / 00:00
Otros videos de esta canción
Repetir
Otros videos de esta canción
Composición de Sin Bandera
166 vistas
    • ½ Tono
    • Am
    • Bbm
    • Bm
    • Cm
    • C#m
    • Dm
    • Ebm
    • Em
    • Fm
    • F#m
    • Gm
    • G#m
  • Agregar a la lista

    0 comentarios

    Ver todos los comentarios

    ¿Lograste tocar?

    0 Tocaron 0 Aún no

    ¡Graba un video tocando A puro dolor y envíanoslo!

    00:00 / 00:00
    OK