Cifra Club

Mientes Tambien

Sin Bandera

Cifrado: Principal (guitarra y guitarra eléctrica)
tono: G
INTRO:

GTR 1: Arpegio
             G                    G                 Dadd9/F#               Em7
E|----------3---------|----------3---------|----------3---------|----------0---------|
B|--------3------3----|--------3------3----|--------3------3----|--------3------3----|
G|-----0-------0---0--|-----0-------0---0--|-----2-------2---2--|-----0-------0---0--|
D|--------------------|--------------------|--------------------|--------------------|
A|--------------------|--------------------|--------------------|--------------------|
E|--3-----------------|--3-----------------|--2-----------------|--0-----------------|

(Ahora entran las 2 guitarras juntas)
GTR 1:
             G                    G                 Dadd9/F#               Em7
E|----------3---------|----------3---------|----------3---------|----------0---------|
B|--------3------3----|--------3------3----|--------3------3----|--------3------3----|\
G|-----0-------0---0--|-----0-------0---0--|-----2-------2---2--|-----0-------0---0--| \
D|--------------------|--------------------|--------------------|--------------------|  \
A|--------------------|--------------------|--------------------|--------------------|   \
E|--3-----------------|--3-----------------|--2-----------------|--0-----------------|    \
GTR 2:                                                                                     Aqui se tocan las
E|---------3----------|---5-----3----------|---------3----------|---5-----3----------|    / dos Guitarras al
B|---------3----------|---5-----3-----3----|---------3----------|---5-----3-----3----|   /    mismo tiempo.
G|------0-------------|---------------4----|------0-------------|---------------4----|  /
D|--------------------|--------------------|--------------------|--------------------| /
A|--------------------|--------------------|--------------------|--------------------|/
E|--3-----------------|--------------------|--3-----------------|--------------------|



VERSO:

GTR1: Arpegio

           Cadd9                 D                     G                 Dadd9/F#
E|----------3---------|----------2---------|----------3---------|----------3---------|
B|--------3------3----|--------3------3----|--------3------3----|--------3------3----|
G|-----0-------0---0--|-----2-------2---2--|-----0-------0---0--|-----2-------2---2--|
D|--------------------|--0-----------------|--------------------|--------------------|
A|--3-----------------|--------------------|--------------------|--------------------|
E|--------------------|--------------------|--3-----------------|--2-----------------|
    Que te quedaras con - migo una vida    entera

           Cadd9                 D                     G                 Dadd9/F#
E|----------3---------|----------2---------|----------3---------|----------3---------|
B|--------3------3----|--------3------3----|--------3------3----|--------3------3----|
G|-----0-------0---0--|-----2-------2---2--|-----0-------0---0--|-----2-------2---2--|
D|--------------------|--0-----------------|--------------------|--------------------|
A|--3-----------------|--------------------|--------------------|--------------------|
E|--------------------|--------------------|--3-----------------|--2-----------------|
   Que con - tigo adiós   invierno solo   primaveras

           Em7                  Em7/D                Cadd9             Cadd9/B
E|----------0---------|----------0---------|----------3---------|----------3---------|
B|--------3------3----|--------3------3----|--------3------3----|--------3------3----|
G|-----0-------0---0--|-----0-------0---0--|-----0-------0---0--|-----0-------0---0--|
D|--------------------|--0-----------------|--------------------|--------------------|
A|--------------------|--------------------|--3-----------------|--2-----------------|
E|--0-----------------|--------------------|--------------------|--------------------|
   Que las olas son de magia y no de agua salada      yo te creo  todo  tu no me das

            Am                    C                 D (Dadd9)              D
E|----------0---------|----------0---------|----------2----3----|-----2--------------|
B|--------1------1----|--------1------1----|--------3-------3---|--------3-----------|
G|-----2-------2---2--|-----0-------0---0--|-----2-------2---2--|-----------2--------|
D|--------------------|--------------------|--0-----------------|--------------------|
A|--0-----------------|--3-----------------|--------------------|--------------------|
E|--------------------|--------------------|--------------------|--------------------|
    nada,                      Tu no me das nada.



          Cadd9                 D                     G                 Dadd9/F#
E|----------3---------|----------2---------|----------3---------|----------3---------|
B|--------3------3----|--------3------3----|--------3------3----|--------3------3----|
G|-----0-------0---0--|-----2-------2---2--|-----0-------0---0--|-----2-------2---2--|
D|--------------------|--0-----------------|--------------------|--------------------|
A|--3-----------------|--------------------|--------------------|--------------------|
E|--------------------|--------------------|--3-----------------|--2-----------------|
   Que si sigo tu    camino   llegaré  hasta el  cielo

           Cadd9                 D                     G                 Dadd9/F#
E|----------3---------|----------2---------|----------3---------|----------3---------|
B|--------3------3----|--------3------3----|--------3------3----|--------3------3----|
G|-----0-------0---0--|-----2-------2---2--|-----0-------0---0--|-----2-------2---2--|
D|--------------------|--0-----------------|--------------------|--------------------|
A|--3-----------------|--------------------|--------------------|--------------------|
E|--------------------|--------------------|--3-----------------|--2-----------------|
   tu me mientes en la cara y yo me vuelvo un ciego

           Em7                  Em7/D                Cadd9             Cadd9/B
E|----------0---------|----------0---------|----------3---------|----------3---------|
B|--------3------3----|--------3------3----|--------3------3----|--------3------3----|
G|-----0-------0---0--|-----0-------0---0--|-----0-------0---0--|-----0-------0---0--|
D|--------------------|--0-----------------|--------------------|--------------------|
A|--------------------|--------------------|--3-----------------|--2-----------------|
E|--0-----------------|--------------------|--------------------|--------------------|
     yo me trago tus palabras tu juegas un juego y me brilla el mundo cuando dices

            Am                    C                 D (Dadd9)              D
E|----------0---------|----------0---------|----------2----3----|-----2--------------|
B|--------1------1----|--------1------1----|--------3-------3---|--------3-----------|
G|-----2-------2---2--|-----0-------0---0--|-----2-------2---2--|-----------2--------|
D|--------------------|--------------------|--0-----------------|--------------------|
A|--0-----------------|--3-----------------|--------------------|--------------------|
E|--------------------|--------------------|--------------------|--------------------|
   luego                        cuando dices luego.                            Cuando dices...


           Cadd9                  D              G     Dadd9/F#            Em7
E|----------3---------|----------2---------|--------------------|----------0---------|
B|--------3------3----|--------3------3----|------3--------3----|--------3------3----|
G|-----0-------0---0--|-----2-------2---2--|----0--0-----2---2--|-----0-------0---0--|
D|--------------------|--0-----------------|--------------------|--------------------|
A|--3-----------------|--------------------|--------------------|--------------------|
E|--------------------|--------------------|--3-------2---------|--0-----------------|
siento, siento que eres todo, cuando dices vida yo estaré con    tigo          tomas de mi...

           Cadd9                  D              G     Dadd9/F#            Em7
E|----------3---------|----------2---------|--------------------|----------0---------|
B|--------3------3----|--------3------3----|------3--------3----|--------3------3----|
G|-----0-------0---0--|-----2-------2---2--|----0--0-----2---2--|-----0-------0---0--|
D|--------------------|--0-----------------|--------------------|--------------------|
A|--3-----------------|--------------------|--------------------|--------------------|
E|--------------------|--------------------|--3-------2---------|--0-----------------|
 mano, y por dentro   lloro aunque sea   mentira me haces sentir vivo         aunque es falso el...

             C                    C                D (Dadd9)                D
E|----------0---------|----------0---------|---------2----3-----|-----2--------------|
B|--------1------1----|--------1------1----|-------3--------3---|--------3-----------|
G|-----0-------0---0--|-----0-------0---0--|-----2------2----2--|-----------2--------|
D|--------------------|--------------------|--0-----------------|--------------------|
A|--3-----------------|--3-----------------|--------------------|--------------------|
E|--------------------|--------------------|--------------------|--------------------|
   aire                          siento que respiro.


CORO:

          Cadd9                 Cadd9                  D                   D
E|----------3---------|----------3---------|---------3po2-------|-----------2--------|
B|--------3------3----|--------3------3----|-------3------------|-------3-------3----|
G|-----0-------0---0--|-----0-------0---0--|-----2--------2-----|-----2---2---2---2--|
D|--------------------|--------------------|--0-----------------|--0-----------------|
A|--3-----------------|--3-----------------|--------------------|--------------------|
E|--------------------|--------------------|--------------------|--------------------|
    Mieeee........              ...ntes tan bien                             Que me sabe a...

             G                 Dadd9/F#               Em7                  D
E|----------3---------|----------3---------|----------0---------|-----------2--------|
B|--------3------3----|--------3------3----|--------3------3----|-------3-------3----|
G|-----0-------0---0--|-----2-------2---2--|-----0-------0---0--|-----2---2---2---2--|
D|--------------------|--------------------|--------------------|--0-----------------|
A|--------------------|--------------------|--------------------|--------------------|
E|--3-----------------|--2-----------------|--0-----------------|--------------------|
 verdad                 todo lo que       me das           ya te estoy amando.


          Cadd9                 Cadd9                  D                   D
E|----------3---------|----------3---------|---------3po2-------|-----------2--------|
B|--------3------3----|--------3------3----|-------3------------|-------3-------3----|
G|-----0-------0---0--|-----0-------0---0--|-----2--------2-----|-----2---2---2---2--|
D|--------------------|--------------------|--0-----------------|--0-----------------|
A|--3-----------------|--3-----------------|--------------------|--------------------|
E|--------------------|--------------------|--------------------|--------------------|
    Mieeee........              ...ntes tan bien                             Que he llegado a...

            Em                   Em                  Am7
E|----------0---------|----------0---------|---------0----------|-----------0--------|
B|--------0------0----|--------0------0----|-------1------1-----|-------1-------1----|
G|-----0-------0---0--|-----0-------0---0--|-----0------0---0---|-----0---0---0---0--|
D|--------------------|--------------------|--------------------|--------------------|
A|--------------------|--------------------|--0-----------------|--0-----------------|
E|--0-----------------|--0-----------------|--------------------|--------------------|
  imaginar             que en mi amor llenas tu piel                    y aunque todo es de...

            C                     C                   D                     D
E|-----------0--------|----------0---------|---------2----------|-----------2--------|
B|---------1-----1----|--------1------1----|-------3------3-----|-------3-------3----|
G|-------0-----0---0--|-----0-------0---0--|-----2------2---2---|-----2---2---2---2--|
D|--------------------|--------------------|--0-----------------|--0-----------------|
A|-0-1-3--------------|--3-----------------|--------------------|--------------------|
E|--------------------|--------------------|--------------------|--------------------|
       papel                                      Oooh                       mientes tan...

             Em                   Em
E|-----------0--------|-----------0--------|
B|-------0-------0----|-------0-------0----|
G|-----0---0---0---0--|-----0---0---0---0--|
D|--------------------|--------------------|
A|--------------------|--------------------|
E|--0-----------------|--0-----------------|
     bien.


          Cadd9                   D             G     Dadd9/F#            Em7
E|----------3---------|----------2---------|--------------------|----------0---------|
B|--------3------3----|--------3------3----|------3--------3----|--------3------3----|
G|-----0-------0---0--|-----2-------2---2--|----0--0-----2---2--|-----0-------0---0--|
D|--------------------|--0-----------------|--------------------|--------------------|
A|--3-----------------|--------------------|--------------------|--------------------|
E|--------------------|--------------------|--3-------2---------|--0-----------------|
siento, siento que eres todo, cuando dices vida yo estaré con    tigo          tomas de mi...

         Cadd9                  D              G     Dadd9/F#            Em7
E|----------3---------|----------2---------|--------------------|----------0---------|
B|--------3------3----|--------3------3----|------3--------3----|--------3------3----|
G|-----0-------0---0--|-----2-------2---2--|----0--0-----2---2--|-----0-------0---0--|
D|--------------------|--0-----------------|--------------------|--------------------|
A|--3-----------------|--------------------|--------------------|--------------------|
E|--------------------|--------------------|--3-------2---------|--0-----------------|
 mano, y por dentro   lloro aunque sea   mentira me haces sentir vivo         aunque es falso el...

             C                    C                D (Dadd9)                D
E|----------0---------|----------0---------|---------2----3-----|-----2--------------|
B|--------1------1----|--------1------1----|-------3--------3---|--------3-----------|
G|-----0-------0---0--|-----0-------0---0--|-----2------2----2--|-----------2--------|
D|--------------------|--------------------|--0-----------------|--------------------|
A|--3-----------------|--3-----------------|--------------------|--------------------|
E|--------------------|--------------------|--------------------|--------------------|
  aire                          siento que respiro.



CORO:

          Cadd9                 Cadd9                  D                   D
E|----------3---------|----------3---------|---------3po2-------|-----------2--------|
B|--------3------3----|--------3------3----|-------3------------|-------3-------3----|
G|-----0-------0---0--|-----0-------0---0--|-----2--------2-----|-----2---2---2---2--|
D|--------------------|--------------------|--0-----------------|--0-----------------|
A|--3-----------------|--3-----------------|--------------------|--------------------|
E|--------------------|--------------------|--------------------|--------------------|
    Mieeee........              ...ntes tan bien                             Que me sabe a...

             G                 Dadd9/F#               Em7                  D
E|----------3---------|----------3---------|----------0---------|-----------2--------|
B|--------3------3----|--------3------3----|--------3------3----|-------3-------3----|
G|-----0-------0---0--|-----2-------2---2--|-----0-------0---0--|-----2---2---2---2--|
D|--------------------|--------------------|--------------------|--0-----------------|
A|--------------------|--------------------|--------------------|--------------------|
E|--3-----------------|--2-----------------|--0-----------------|--------------------|
 verdad                 todo lo que       me das           ya te estoy amando.


          Cadd9                 Cadd9                  D                   D
E|----------3---------|----------3---------|---------3po2-------|-----------2--------|
B|--------3------3----|--------3------3----|-------3------------|-------3-------3----|
G|-----0-------0---0--|-----0-------0---0--|-----2--------2-----|-----2---2---2---2--|
D|--------------------|--------------------|--0-----------------|--0-----------------|
A|--3-----------------|--3-----------------|--------------------|--------------------|
E|--------------------|--------------------|--------------------|--------------------|
    Mieeee........              ...ntes tan bien                             Que he llegado a...

            Em                   Em                  Am7                    Am7
E|----------0---------|----------0---------|---------0----------|-----------0--------|
B|--------0------0----|--------0------0----|-------1------1-----|-------1-------1----|
G|-----0-------0---0--|-----0-------0---0--|-----0------0---0---|-----0---0---0---0--|
D|--------------------|--------------------|--------------------|--------------------|
A|--------------------|--------------------|--0-----------------|--0-----------------|
E|--0-----------------|--0-----------------|--------------------|--------------------|
  imaginar           que en mi amor llenas tu piel                    y aunque todo es de...

            C                     C                   D                     D
E|-----------0--------|----------0---------|---------2----------|-----------2--------|
B|---------1-----1----|--------1------1----|-------3------3-----|-------3-------3----|
G|-------0-----0---0--|-----0-------0---0--|-----2------2---2---|-----2---2---2---2--|
D|--------------------|--------------------|--0-----------------|--0-----------------|
A|-0-1-3--------------|--3-----------------|--------------------|--------------------|
E|--------------------|--------------------|--------------------|--------------------|
     papel                                                                mientes tan...

            Em                   Em                  Am7
E|----------0---------|----------0---------|---------0----------|-----------0--------|
B|--------0------0----|--------0------0----|-------1------1-----|-------1-------1----|
G|-----0-------0---0--|-----0-------0---0--|-----0------0---0---|-----0---0---0---0--|
D|--------------------|--------------------|--------------------|--------------------|
A|--------------------|--------------------|--0-----------------|--0-----------------|
E|--0-----------------|--0-----------------|--------------------|--------------------|
     bien.                                        mmm...               y aunque todo es de...

            C                     C                   D                     D
E|-----------0--------|----------0---------|---------2----------|-----------2--------|
B|---------1-----1----|--------1------1----|-------3------3-----|-------3-------3----|
G|-------0-----0---0--|-----0-------0---0--|-----2------2---2---|-----2---2---2---2--|
D|--------------------|--------------------|--0-----------------|--0-----------------|
A|-0-1-3--------------|--3-----------------|--------------------|--------------------|
E|--------------------|--------------------|--------------------|--------------------|
     papel                                                                   mientes ...

           Em7                   Em7                  Em                    Em
E|---------0----------|---------0----------|---------0----------|-----------0--------|
B|-------3------3-----|-------3-------3----|-------0-------0----|--------0-------0---|
G|-----0------0---0---|-----0-------0---0--|-----0-------0---0--|-----0--------0---0-|
D|--------------------|--------------------|--------------------|--------------------|
A|--------------------|--------------------|--------------------|--------------------|
E|--0-----------------|--0-----------------|--0-----------------|--0-----------------|
     no se.

OUTRO:

GTR 1:
             G                    G
E|----------3---------|----------3---------|
B|--------2------2----|--------2------2----|\
G|-----0-------0---0--|-----0-------0---0--| \
D|--------------------|--------------------|  \
A|--------------------|--------------------|   \
E|--3-----------------|--3-----------------|    \
GTR 2:                                           ----------->  Aqui se tocan las dos Guitarras al
E|---------3----------|---5-----3----------|    /              mismo tiempo, igual que en el intro
B|---------3----------|---5-----3-----3----|   /
G|------0-------------|---------------4----|  /
D|--------------------|--------------------| /
A|--------------------|--------------------|/
E|--3-----------------|--------------------|

GTR 2:
                                                   G
E|---------3----------|---5-----3----------|------------3--|
B|---------3----------|---5-----3-----3----|----------3----|
G|------0-------------|---------------4----|--------0------|
D|--------------------|--------------------|------0--------|
A|--------------------|--------------------|---------------|
E|--------------------|--------------------|---------------|
00:00 / 00:00
Otros videos de esta canción
Repetir
Otros videos de esta canción
Compositor no encontrado.
Colaboración y revisión:
  • Alex
2.938 vistas
    • ½ Tono
    • A
    • Bb
    • B
    • C
    • Db
    • D
    • Eb
    • E
    • F
    • F#
    • G
    • Ab
  • Agregar a la lista

    0 comentarios

    Ver todos los comentarios

    ¿Lograste tocar?

    0 Tocaron 0 Aún no

    ¡Graba un video tocando Mientes Tambien y envíanoslo!

    00:00 / 00:00
    OK