Cifra Club

Que Lloro

Sin Bandera

Cifrado: Principal (guitarra y guitarra eléctrica)
tono: A
[Intro] D  A  F#m  E4  E

[Primeira Parte]

  D
Quédate un momento así
                A
No mires hacia mí que no podré aguantar
                F#m
Si clavas tu mirada que me hiela el cuerpo
             E4                     E
Me ha pasado antes que no puedo hablar

 D
Tal vez pienses que estoy loco
                A
Y es verdad un poco tengo que aceptar
              F#m
Pero si no te explico lo que siento dentro
               E4                    E
No vas a entender cuando me veas llorar

 D                                    A
Nunca me sentí tan solo como cuando ayer

De pronto lo entendí mientras callaba
 F#m
La vida me dijo a gritos
              E4                 E
Que nunca te tuve y nunca te perdí y me explicaba
  D
Que el amor es una cosa
               A
Que se da de pronto en forma natural lleno de fuego
 F#m                                    E4                 E
Si la forza se marchita, sin tener principio llega a su final

[Pré-Refrão]

           D
Ahora tal vez lo puedas entender
           E
Que si me tocas se quema mi piel
           F#m
Ahora tal vez lo puedas entender
          E4                   E
Y no te vuelvas si no quieres ver

[Refrão]

      D        E        Bm7       E
Que lloro por ti, que lloro sin ti
    D           E                         D
Que ya lo entendí que no eres para mí y lloro

[Segunda Parte]

 D                                    A
Nunca me sentí tan solo como cuando ayer

De pronto lo entendí mientras callaba
 F#m
La vida me dijo a gritos
              E4                 E
Que nunca te tuve y nunca te perdí y me explicaba
  D
Que el amor es una cosa
               A
Que se da de pronto en forma natural lleno de fuego
 F#m                                    E4                 E
Si la forza se marchita, sin tener principio llega a su final

[Pré-Refrão]

           D
Ahora tal vez lo puedas entender
           E
Que si me tocas se quema mi piel
           F#m
Ahora tal vez lo puedas entender
          E4                   E
Y no te vuelvas si no quieres ver

[Refrão]

      D         E       Bm7       E
Que lloro por ti, que lloro sin ti
      D         E       Bm7       E
Que lloro por ti, que lloro sin ti
     D          E                         D
Que ya lo entendí que no eres para mí y lloro

[Solo] D  A  F#m  E
       D  F#m  (E)  D  E

E|----------------------------------------------------|
B|----------------------------------------------------|
G|-------2---2---2---2---2-----4---4-----6---6--6-6/4-|
D|-4-4-4---4---4---4---4---4/6---6---6/7---7----------|
A|----------------------------------------------------|
E|----------------------------------------------------|

E|----------------------------------------------------|
B|----------------------------------------------------|
G|-4/2-2/4-2-2~---2-2-2-2-2-2-2p1-1/4---4-4-4-4-4-4p2-|
D|----------------------------------------------------|
A|----------------------------------------------------|
E|----------------------------------------------------|

E|----------------------------------------------------|
B|-------------------------------------------------10-|
G|-2~----2p1-1-1-2/4--4-4-4p2-4/6-6-6----9-------9----|
D|------------------------------------------9h11------|
A|----------------------------------------------------|
E|----------------------------------------------------|

E|----------------------------------------------------|
B|-12b14-14-14-14-14-14-14----------------------------|
G|----------------------------------------------------|
D|----------------------------------------------------|
A|----------------------------------------------------|
E|----------------------------------------------------|

[Refrão]

      D         E       Bm7       E
Que lloro por ti, que lloro sin ti
      D         E       Bm7       E
Que lloro por ti, que lloro sin ti
     D          E                         D
Que ya lo entendí que no eres para mí y lloro

[Final] A  A4
00:00 / 00:00
Otros videos de esta canción
Repetir
Otros videos de esta canción
Composición de Leonel García / Noel Schajris
Colaboración y revisión:
  • Getúlio Vasconcelos
  • Nicolas Forero
  • André Miranda
32.794 vistas
    • ½ Tono
    • A
    • Bb
    • B
    • C
    • Db
    • D
    • Eb
    • E
    • F
    • F#
    • G
    • Ab
  • Agregar a la lista

    0 comentarios

    Ver todos los comentarios

    ¿Lograste tocar?

    10 Tocaron 5 Aún no

    ¡Graba un video tocando Que Lloro y envíanoslo!

    00:00 / 00:00
    OK