Cifra Club

Y más te amo

Sin Bandera

Cifrado: Principal (guitarra y guitarra eléctrica)
tono: G#m
INTRO (Capella): Oh oh oh oh oh oh oh.

INTRO (Acordes): Bmaj7 E

 Bmaj7
Cuando pienso en ti junto a mí,

              Bmaj7
En todas las cosas que me has hecho sentir

 E
Yo... te amo.

 Bmaj7
Si recuerdo tu respirar,

              Bmaj7
Tu boca en silencio siempre me hace pensar

     E
Que yo... te amo.

 C#m
Siempre con la fuerza de un mar,

             F#
Este amor inmenso que vuelve a golpear.

CORO:

 B
Vuelve tu piel a brillar,

              F#/A#
Vuelven esas manos a hacerme temblar...

         E
Y más te amo.

B
Oigo tu voz otra vez,

              B
Como un eco que pone todo al revés...

   D#7   G#m           F#           E
Y más te amo, y más te amo y más te amo.

SEGUNDA PARTE:

 Bmaj7
Cuando yo recuerde el latir...

           Bmaj7
De tu corazón que siempre me hace seguir...

 E
Yo... yo te amo.

  Bmaj7
Quise ser tu luz al amanecer

Bmaj7
Y decir de nuevo al anochecer

     E
Que yo... que yo te amo.

 C#m
Siempre con la fuerza de un mar,

             F#
Este amor inmenso que vuelve a golpear.

CORO:

 B
Vuelve tu piel a brillar,

              F#/A#
Vuelven esas manos a hacerme temblar...

         E
Y más te amo.

B
Oigo tu voz otra vez,

              B
Como un eco que pone todo al revés...

   D#7   G#m           F#           E
Y más te amo, y más te amo y más te amo.

G  O:

                 Bmaj7
E|--------------------------------------|
B|--------------------------------------|
G|------------8-11-------------8-11h13--|
D|-9-9-9-9h11-------9-9-9-9h11----------|
A|--------------------------------------|
E|--------------------------------------|
                   E
E|----------------------------|
B|----------------------------|
G|------8-9h11-11-11-9--------|
D|-9-11----------------9h11-9-|
A|----------------------------|
E|----------------------------|
              E
E|---------------7-9-11-11h12-11--------------|
B|-----------7h9-----------------12-----------|
G|------8-11------------------------11h13-11--|
D|-9-11---------------------------------------|
A|--------------------------------------------|
E|--------------------------------------------|

 C#m
Siempre con la fuerza de un mar,

             F#
Este amor inmenso que vuelve a golpear.

CORO:

 B
Vuelve tu piel a brillar,

              F#/A#
Vuelven esas manos a hacerme temblar...

         E
Y más te amo.

B
Oigo tu voz otra vez,

              B
Como un eco que pone todo al revés...

   D#7   G#m           F#           E
Y más te amo, y más te amo y más te amo.

           Bmaj7
Y tú no estás.

           E
Y tú no estás.

           Bmaj7 E
Y tú no estás.
00:00 / 00:00
Otros videos de esta canción
Repetir
Otros videos de esta canción
Composición de Leonel García, noel Schajris
209 vistas
    • ½ Tono
    • Am
    • Bbm
    • Bm
    • Cm
    • C#m
    • Dm
    • Ebm
    • Em
    • Fm
    • F#m
    • Gm
    • G#m
  • Agregar a la lista

    0 comentarios

    Ver todos los comentarios

    ¿Lograste tocar?

    0 Tocaron 0 Aún no

    ¡Graba un video tocando Y más te amo y envíanoslo!

    00:00 / 00:00
    OK