Cifra Club

Light It Up

Sing It Loud

Cifrado: Principal (guitarra y guitarra eléctrica)
tono: G
(afinação D)

(repeat 8 times only do half of the 8th one as it enters the chorus)
Sing it loud
Light it up                       (play this part the second time)

(intro/verse)
g|------------------------------|-----------------------------------|
e|------------------------------|-----------------------------------|
b|------------------------------|-----------------------------------|
g|------------------------------|-----------------------------------|
d|-------5------5-------------5-|--9-9------5-5-------5-5-----------|
a|-3-3-----3-3----0-0-3-3-3-----|--9-9(8x)--5-5-(8x)--5-5-(12x)-----|
d|------------------------------|--9-9------5-5-------5-5-----------|

   (chorus)
e|-----------------------------|
B|-----------------------------|        (repeat 4x)
G|--------------7-7-7----------|        (back to verse/intro)
d|--9-9-9--5-5--7-7-7--7-7-----|
a|--9-9-9--5-5--5-5-5--7-7-----|
d|--9-9-9--5-5---------7-7-----|
00:00 / 00:00
Otros videos de esta canción
Repetir
Otros videos de esta canción
Composición de Sing It Loud
Colaboración y revisión:
  • Lizandra
25 exhibiciones
    • ½ Tono
    • A
    • Bb
    • B
    • C
    • Db
    • D
    • Eb
    • E
    • F
    • F#
    • G
    • Ab
  • Agregar a la lista
    00:00 / 00:00
    OK