Cifra Club

Juegas al palé

Siniestro Total

Cifrado: Principal (guitarra y guitarra eléctrica)
tono: D
Intro:

    A                 A#
A|-----------|--------7-5----| | Bajo
E|--5-5--5-5-|-5-5--5-----6--| |



 D           A#
Juegas al Palé
 D             A#
te huelen los pies
 D           A#
Juegas al Palé
 D             A#
te huelen los pies
                A
(te huelen los pies)

    A                 A#
A|-----------|--------7-5----| | Bajo y Guitarra
E|--5-5--5-5-|-5-5--5-----6--| | (4 veces)

 D           A#
Juegas al Palé
 D             A#
te huelen los pies
 D           A#
Juegas al Palé
 D             A#
te huelen los pies
                E
(te huelen los pies)

    E    F   B    E    F   B    A E D B    A E D B
A|-----------2--|----------2--|---7-5----|---7-5---|
E|--0--0-1-1----|-0--0-1-1----|-5-----7--|-5-----7-|

    E    F   B    E    F   B    A E D B    A E D B
A|-----------2--|----------2--|---7-5----|---7-5-----|
E|--0--0-1-1----|-0--0-1-1----|-5-----7--|-5-----7s3-|
   E                     G     D
A|-2-2--2-2--2-2--2-2--|-5---5-12/7--| |
E|-0-0--0-0--0-0--0-0--|-3---3-10/5--| |

    A                 A#
A|-----------|--------7-5----| | Bajo
E|--5-5--5-5-|-5-5--5-----6--| | (7 veces)

 D           A#
Juegas al Palé
 D             A#
te huelen los pies
 D           A#
Juegas al Palé
 D             A#
te huelen los pies
                E
(te huelen los pies)

    E    F   B    E    F   B   A E D B    A E D B
A|-----------2--|----------2--|---7-5----|---7-5---|
E|--0--0-1-1----|-0--0-1-1----|-5-----7--|-5-----7-|

    E    F   B    E    F   B   A E D B    A E D B
A|-----------2--|----------2--|---7-5----|---7-5-----|
E|--0--0-1-1----|-0--0-1-1----|-5-----7--|-5-----7s3-|
   E                  G     D
A|-2-2--2-2--2-2--2-2--|-5---5-12---| |
E|-0-0--0-0--0-0--0-0--|-3---3-10---| |
Composición de Miguel Costas
    • ½ Tono
    • A
    • Bb
    • B
    • C
    • Db
    • D
    • Eb
    • E
    • F
    • F#
    • G
    • Ab
  • Agregar a la lista

    0 comentarios

    Ver todos los comentarios

    ¿Lograste tocar?

    0 Tocaron 0 Aún no

    ¡Graba un video tocando Juegas al palé y envíanoslo!

    00:00 / 00:00
    Outros vídeos desta música
    Repetir Calidad Automático
    Outros vídeos desta música
    00:00 / 00:00
    Automático
    OK