Cifra Club

Siniestro Total

Siniestro Total

Cifrado: Principal (guitarra y guitarra eléctrica)
tono: D
 Intro/Estrofas :

     A            D/F#  G      D/F#  G    D/F#  G     D/F#  A
E|----------------------------------------------------------------|
B|--2--2--2------3--3--3------3--3--3----3--3--3-----------2--2---|
G|--2--2--2------2--2--0------2--2--0----2--2--0-----2-----2--2---|
D|--2--2--2------0--0--0------0--0--0----0--0--0-----0-----2--2---|
A|--0--0--0------0--0--0------0--0--0----0--0--0-----0-----0--0---|
E|---------------2--2--3------2--2--3----2--2--3-----2------------|

      Esta es la parte que une el riff principal con el estribillo

E|--------------------------|
B|--------------------------|
G|--------------------------|
D|-2-2-2-2-2-2-2-2-2-2------|
A|-2-2-2-2-2-2-2-2-2-2------|
E|-0-0-0-0-0-0-0-0-0-0------|

Y esto es el estribillo

E|---------------------|
B|-------3-3-3---------|
G|-2-2-2-2-0-2---------|
D|-2-2-2-0-0-0---------|
A|-0-0-0---0-0---------|
E|---------3-2---------|
Compositor não encontrado.
    • ½ Tono
    • A
    • Bb
    • B
    • C
    • Db
    • D
    • Eb
    • E
    • F
    • F#
    • G
    • Ab
  • Agregar a la lista

    0 comentarios

    Ver todos los comentarios

    ¿Lograste tocar?

    0 Tocaron 0 Aún no

    ¡Graba un video tocando Siniestro Total y envíanoslo!

    00:00 / 00:00
    Outros vídeos desta música
    Repetir Calidad Automático
    Outros vídeos desta música
    00:00 / 00:00
    Automático
    OK