Cifra Club

Reign

Sioen

Cifrado: Principal (guitarra y guitarra eléctrica)
Selo Cifra Club: esta cifra foi revisada para atender aos critérios oficiais da nossa Equipe de Qualidade.
tono: Bb
E|----------------------| x8
B|-1--4--3-----1--4--3--|
G|----------------------|
D|----------------------|
A|-3--6--5-----3--6--5--|
E|----------------------|

BASTAB RIFF1
E|----------------------| x8
B|----------------------|
G|-3--6--5-----3--6--5--|
D|----------------------|
A|-1--4--3-----1--4--3--|

RIFF2                           THEN
E|----------------------| x3  --------------------|
B|-1--4--3-----1--4--3--| --------------------|
G|----------------------| ---0----------------|
D|----------------------| -4---4-3-4-2-0------|
A|-3--6--5-----3--6--5--| ---------------3----|
E|----------------------| --------------------|


[Intro 2] 
RIFF3
Cm        Cm        Cm          N.C.   
RIFF3a                          THEN
E|----------------------| x3   ---------------------|
B|-1--4--3-----1--4--3--| ---------------------|
G|----------------------| ---------------------|
D|----------------------| ---------------------|
A|-3--6--5-----3--6--5--| -1------------1-0----|
E|----------------------| ------------------4--|

Cm        Cm        Cm          N.C.   
RIFF3b                          THEN
E|----------------------| x3   ---------------------|
B|-1--4--3-----1--4--3--| ---------------------|
G|----------------------| ---0-----------------|
D|----------------------| -4---4-3-4-2-0-------|
A|-3--6--5-----3--6--5--| ---------------3-----|
E|----------------------| ---------------------|

[Verse 1]
Cm               Cm    Cm                  N.C.
I met you in the morning, I met you in the evening,
Cm              Cm    Cm   N.C.
is this the reason why you say you want to do it again.

[Interlude]
Cm        Cm        Cm        N.C.      x2

[Verse 2]
Cm                   Cm   Cm              N.C.
But you just need to go out, get into the sunshine.
Cm                Cm     Cm      N.C.                      Cm       Cm
Give meaning to your being, just say you want to do it again.

[Chorus]
Cm        F        Cm7/Eb        Dm7     x2
Cm                         F   Cm7/Eb                  Dm7
Come on up and open your eyes, sit in silence, fantasize.
Cm                          F   Cm7/Eb                      Dm7
Everyone has got to break free, put it all aside and now reign.
Cm                              F
Come on up, don't close your mouth before you've lived,
       Cm7/Eb                    Dm7
you shout before you live, be proud before you live, you say
Cm                          F
you alsways get what you want and now believe that's
        Cm7/Eb              N.C.
it's true and now believe it ….. dance!

[Interlude]
Cm        Cm        Cm        N.C.      x2

[Verse 3]
Cm               Cm     Cm                 N.C.
I met you in the morning, I met you in the evening,
Cm                     Cm       Cm   N.C.
you're stuck down in your cellar and say you want to do it again.

[Verse 4]
Cm                   Cm    Cm                        N.C.
But you just need to go out, get yourself together before you pass out.
Cm                Cm      Cm     N.C.
Give meaning to your being, just say you want to do it again.

[Chorus]
Cm        F        Cm7/Eb        Dm7     x2
Cm                         F   Cm7/Eb                  Dm7
Come on up and open your eyes, sit in silence, fantasize.
Cm                          F   Cm7/Eb                       Dm7
Everyone has got to break free, put it all aside and now reign.
Cm                         F   Cm7/Eb                  Dm7
Come on up and open your eyes, sit in silence, fantasize.
Cm                          F   Cm7/Eb                       Dm7
Everyone has got to break free, put it all aside and now reign.

Cm                               F
Come on up, don't close your mouth before you've lived,
       Cm7/Eb                    Dm7
you shout before you live, be proud before you live, you say
Cm                         F
you alsways get what you want and now believe that's
       Cm7/Eb                           Dm7
it's true and now believe that's it's true and now you do.
Cm                         F   Cm7/Eb                  Dm7  Dbm7
Come on up and open your eyes, sit in silence, fantasize.
Cm                     F        Bb     N.C.    Cm    Cm    Cm
Everyone has got to break free, free.
Otros videos de esta canción
    4 exhibiciones
      • ½ Tono
      • A
      • Bb
      • B
      • C
      • Db
      • D
      • Eb
      • E
      • F
      • F#
      • G
      • Ab
    • Agregar a la lista

    Afinação da cifra

    Afinador online

      Ops (: Contenido disponible solo en portugués.
      OK