Cifra Club

Sad But True

Sixpence None The Richer

Tab de bajo: Principal
Introduction
G|--------
D|--------
A|--------
E|-0-12-

Pre-Verse
G|--------------
D|--------------
A|----------333-
E|-0-0-00-0-----

Verse
G|-------------------------------
D|-------------------------------
A|-----3---4---5---6---7---8---0-
E|-0-----------------------------

Chorus
G|---------------------------
D|---------------------------
A|----------333----------555-
E|-0-0-00-0-----3-3-33-3-----

Breakdown (Approximately 2:00 into the track)
G|-------------4---------------------------
D|---------5-----5-------------------------
A|-3---3-3---3-----3---0-0-------2p0---0-2-
E|-------------------------0h2h3-----0-----

End Of Breakdown
G|------------------
D|------------------
A|------------------
E|-2/5-555555555555-
Composición de Matt Slocum
Colaboración y revisión:
  • Pâmella Santos
17 vistas

0 comentarios

Ver todos los comentarios
00:00 / 00:00
Outros vídeos desta música
Repetir Calidad Automático
Outros vídeos desta música
00:00 / 00:00
Automático
OK