Cifra Club

Awake And Alive

Skillet

Tablatura: Principal
reproducciones 1.543
Tono: E
*Afinação Drop-D

[Pré-solo]
E|------------------|
B|------------------|
G|-2----4----5----7-|
D|-2----4----5----7-|
A|-0----2----3----5-|
D|------------------|

[Solo]

  ......pm....
E|-------------------------------------------------|
B|-------------------------------------------------|
G|-------------------------------------------------|
D|-------7-9-10------12-10p9h10p9------------12h14-|
A|-7-9-10-------10b11------------10p9p7h9-10-------|
D|-------------------------------------------------|

   ...pm...
E|----------------------------|
B|----------------------------|
G|-----------9-11-12-11-9-11~-|
D|---9-10-12------------------|
A|-12-------------------------|
D|----------------------------|

      A                                   B
E|-------------12h14h15p14p12--------|--------12-14h15h17p15p14--------|
B|-------10/12---------------12------|------12------------------15-----|
G|-11h12------------------------12p11|-11h12----------------------14-12|
D|-----------------------------------|---------------------------------|
A|-----------------------------------|---------------------------------|
D|-----------------------------------|---------------------------------|

E|----------------------------------------------------17h19h20p19--|
B|--------------------------------------------17h19h20-------------|
G|9h11h12-11h12h14-12h14h16-14h16h17-16h17h19----------------------|
D|-----------------------------------------------------------------|
A|-----------------------------------------------------------------|
D|-----------------------------------------------------------------|

E|---19b-17-19-19b(s)-|
B|--------------------|
G|--------------------| 
D|--------------------|  
A|--------------------|
D|--------------------|
Acordes para:
    Compositor: Brian Howes / John Cooper / John L. CooperColaboración y revision:

    0 comentarios

      mostrar más comentarios

      ¿Conseguiste tocar?

      8tocaron5aún no

      ¡Graba un vídeo tocando Awake And Alive y envianoslo!

      00:00 / 00:00
      outros vídeos desta música
      repetirqualidadeautomática
      Outro vídeos desta música
        00:00 / 00:00
        automática
        OK