Notificações Amigos pendentes

      Skillet

      Better Than Drugs

      304 reproducciones
      Tono: G
      Tabed by Aaron Graves
      
      1st intro
      
      
      E  00--0---0--0------------------------------| REPEAT
      A  --87-87--87-7777--------------------------|
      D  ------------------------------------------|
      G  ------------------------------------------|
      B  ------------------------------------------|
      E  ------------------------------------------|
      
      
      2nd intro
      
      
      E  -3-00-2-00-3-00-5-00-8777---00--00--00--00--32-| REPEAT
      A  -------------------------8-----7---3---5----32-|
      D  --------------------------------------------32-|
      G  -----------------------------------------------|
      B  -----------------------------------------------|
      E  -----------------------------------------------|
      
      
       1st VERSE
      
      
      E 8-8-8-8-8-8-8-8-8-8-8-8-8-8-8- 10-10-10-10-10-10-10-10-|
      A 8-8-8-8-8-8-8-8-8-8-8-8-8-8-8--10-10-10-10-10-10-10-10-|
      D 8-8-8-8-8-8-8-8-8-8-8-8-8-8-8--10-10-10-10-10-10-10-10-|
      G -------------------------------------------------------|
      B -------------------------------------------------------|
      E -------------------------------------------------------|
      
      
      part 2 of 1st verse
      
      
      E 00-2-00-8-7-5-7-3-5--REPEAT AND END ON 5555---5555-|
      A 00-2-00-8-7-5-7-3-5--                  5555---5555-|
      D 00-2-00-8-7-5-7-3-5--                  5555---5555-|
      G ---------------------                  ------------|
      B ---------------------                  ------------|
      E ---------------------                  ------------|
      
      
      i would do the verse but i don't feel like writing it right now...
      maybe some other time..
      cause right now i just wanna jam...
      but if you REALY NEED IT!!!!??..
      just e-mail me at A*
        Composición: Brian Howes

        Comentarios 0

        140 .
        140 cancelar

        ¿conseguiste tocar?

        covers

        ¡Grave un vídeo tocando Better Than Drugs y envie para nosotros!

        Ex.: http://www.youtube.com/watch?v=0IvSvIwGdwk
        ver cover de otras canciones »
        0:00 / 0:00

        Capitulos

          3 versões de guitarra dificuldad reproducciones contribuición y correción
          3 versões de guitarra eléctrica dificuldad reproducciones contribuición y correción
          3 versões de cavaco dificuldad reproducciones contribuición y correción
          3 versões de teclado dificuldad reproducciones contribuición y correción
          1 versão de Guitar Proformatodownloadscontribuición
          play/pausefechar subir/bajar velocidad
          6ª cuerda E5ª cuerda A4ª cuerda D3ª cuerda G2ª cuerda B1ª cuerda E
            acordes
            publicidad
            cerrar
            ok