Cifra Club

I Can

Skillet

Cifrado: Principal (guitarra y guitarra eléctrica)
Selo Cifra Club: esta cifra foi revisada para atender aos critérios oficiais da nossa Equipe de Qualidade.
tono: Am
Clean
E|---------------------------------------------------------------|
B|---------------------------------------------------------------|
G|----4--4---4-4-4-4--2--2---2-2----5--5---5-5-5-5--4--4---4-4---| x2
D|----2--2---2-2-2-2--2--2---2-2----2--2---2-2-2-2--2--2---2-2---|
A|---------------------------------------------------------------|
E|---------------------------------------------------------------|


Riff (Distorted):

E5 A5 Eb
E5 C5 Bb
E5 A5 Eb
E5 C5 Bb



[Verse 1]

Clean
E|---------------------------------------------------------------|
B|---------------------------------------------------------------|
G|----4--4---4-4-4-4--2--2---2-2----5--5---5-5-5-5--4--4---4-4---| x4
D|----2--2---2-2-2-2--2--2---2-2----2--2---2-2-2-2--2--2---2-2---|
A|---------------------------------------------------------------|
E|---------------------------------------------------------------|

The following chords are what the bass plays

E              A              G                 C
Looking on the sad times, the guilt and all the shame

       E             A       G       C
I have learned to submit my existing hurts and pains

E        A           G               C
All the grief I have learned to set aside


[Chorus]

      E     A     G     C
Cause I am, I am, I am, I am

(Distortion)

E5      A5      Eb  E5      C5    Bb
Feeling undernoted, feeling undermined

E5      A5      Eb    E5       C5    Bb
Can this grace of God cover me this time?

A

[Verse 2] 

           Em                  Gadd9        D2
And when I feel the pain I know why I feel strange

Cadd9      Em               Gadd9     D2
And when I hear the rooster crow I am ashamed

D2


(Distortion again, same riff)

E5 A Eb
E C5 Bb x2


[Verse 3] 

Clean
E|---------------------------------------------------------------|
B|---------------------------------------------------------------|
G|----4--4---4-4-4-4--2--2---2-2----5--5---5-5-5-5--4--4---4-4---| x4
D|----2--2---2-2-2-2--2--2---2-2----2--2---2-2-2-2--2--2---2-2---|
A|---------------------------------------------------------------|
E|---------------------------------------------------------------|

E            A              G             C
Jesus on the cross and this cross upon my back

       E             A          G           C
I have learned to submit then I whine about my lack

E                A         G         C
Sometimes I drop my cross, deserve a little rest

             E            A     G         C
That is when I run to you and I nail your feet and your wrist


[Chorus 2]

(Distortion)

E5      A5      Eb  E5      C5    Bb
Feeling undernoted, feeling undermined

E5      A5      Eb    E5       C5    Bb
Can this grace of God cover me this time?

A A A


[Verse 4]
           Em              Gadd9           D2
And when I feel the pain I know why I feel strange

Cadd9      Em               Gadd9     D2         D2
And when I hear the rooster crow I am ashamed


[Solo] 

Rhythm:

Clean
E|---------------------------------------------------------------|
B|---------------------------------------------------------------|
G|----4--4---4-4-4-4--2--2---2-2----5--5---5-5-5-5--4--4---4-4---| x2
D|----2--2---2-2-2-2--2--2---2-2----2--2---2-2-2-2--2--2---2-2---|
A|---------------------------------------------------------------|
E|---------------------------------------------------------------|

Clean
E|---------------------------------------------------5-----------|
B|----6--5-------------------------------5--6--7--8--------------|
G|----------7~-----5--4----------4--5--7-------------------------|
D|-----------------------7~----7---------------------------------|
A|---------------------------------------------------------------|
E|---------------------------------------------------------------|


(Pick through the notes like on the first verse)


Am         Em              Gadd9           D2
And when I feel the pain I know why I feel strange

Cadd9      Em               Gadd9      D2
And when I hear the rooster crow I am ashamed


[Chorus 3]
Am         Em             Gadd9              D2
And do you really love my soul, even after I hated you?

Cadd9      Em             Gadd9              D2
And do you really know my name, can I really come to you?


(Now just strumm the chords)

Am      Em                   Gadd9                    D2
Are you really more faithful than the changing of the seasons and the morning sun?

Cadd9      Em             Gadd9              D2
And do you really know my name, can I really come to you?


[Outro]

Distortion

E5     A5 Eb  E5     C5 Bb  E5     A5 Eb  E5     C5 Bb  E5     A5 Eb  E5     C5 Bb  E5     A5 Eb  E5     C5 
I can, I can, I can, I can, I can, I can, I can, I can, I can, I can, I can, I can, I can, I can, I can, I 

Eb    E5          A5  Eb  E5            C5  Bb  E5            A5  Eb  E5            C5  Bb
don't care if the rooster crows, if the rooster crows, if the rooster crows, if the rooster crows

A5


Clean 

E|---------------------------------------------------------------|
B|---------------------------------------------------------------|
G|----4--4---4-4-4-4--2--2---2-2----5--5---5-5-5-5--4--4---4-4---| x8
D|----2--2---2-2-2-2--2--2---2-2----2--2---2-2-2-2--2--2---2-2---|
A|---------------------------------------------------------------|
E|---------------------------------------------------------------|
Otros videos de esta canción
    23 exhibiciones
      • ½ Tono
      • Am
      • Bbm
      • Bm
      • Cm
      • C#m
      • Dm
      • Ebm
      • Em
      • Fm
      • F#m
      • Gm
      • G#m
    • Agregar a la lista

    Afinación de cifrado

    Afinador online

      OK