Cifra Club

Face My Fears

Skrillex

Cifrado: Principal (guitarra y guitarra eléctrica)
Selo Cifra Club: esta cifra foi revisada para atender aos critérios oficiais da nossa Equipe de Qualidade.
tono: C#m
E|-----------19--16--17--19--16--17---|-----------19--16--17--19--16--17-----|
B|-----5-------17--17--17--17--17--17-|-----5-------17--17--17--17--17--17---|
G|---------6--------------------------|---------6----------------------------|
D|---6--6-7---------------------------|---6--6-7-----------------------------|
A|-4----6-5---------------------------|-4----6-7-----------------------------|
E|------4-5---------------------------|------4-5-----------------------------|

E|-----------19--16--17--19--16--17---|-----------19--16--17--19--16--17-----|
B|-----5-------17--17--17--17--17--17-|-----5-------17--17--17--17--17--17---|
G|---------6--------------------------|---------6----------------------------|
D|---6--6-7---------------------------|---6--6-7-----------------------------|
A|-4----6-5---------------------------|-4----6-7-----------------------------|
E|------4-5---------------------------|------4-5-----------------------------|

E|-----------19--16--17--19--16--17--|
B|-----5-------17--17--17--17--17--17|
G|---------6-------------------------|
D|---6--6-7--------------------------|
A|-4----6-5--------------------------|
E|------4-5--------------------------|


[Pre-Chorus]

E|--------|
B|7----7-5|
G|8----8-6|
D|9----9-7|
A|9----9-7|
E|--------|


[Chorus]
(Listen to song for strumming pattern)

E|-4-4-4-4-4---5-5-5-5-5-|-4-4-4-4-4---5-5-5-5-5-----------------------------|
B|-5-5-5-5-5---5-5-5-5-5-|-5-5-5-5-5---5-5-5-5-5-----------------------------|
G|-6-6-6-6-6---6-6-6-6-6-|-6-6-6-6-6---6-6-6-6-6-----------------------------|
D|-6-6-6-6-6-6-7-7-7-7-7-|-6-6-6-6-6-6-7-7-7-7-7-----------------------------|
A|-4-4-4-4-4-6-7-7-7-7-7-|-4-4-4-4-4-6-7-7-7-7-7-----------------------------|
E|-----------4-5-5-5-5-5-|----------| 4-5-5-5-5-5-----------------------------|

E|---------------------------------|-----------------------------------------|
B|-7-7-7-7-7-7-7-7-5-5-5-5-5-5-5-5-|-7-7-7-7-7-7-7-7-5-5-5-5-5-5-5-5---------|
G|-8-8-8-8-8-8-8-8-6-6-6-6-6-6-6-6-|-8-8-8-8-8-8-8-8-6-6-6-6-6-6-6-6---------|
D|-9-9-9-9-9-9-9-9-7-7-7-7-7-7-7-7-|-9-9-9-9-9-9-9-9-7-7-7-7-7-7-7-7---------|
A|-9-9-9-9-9-9-9-9-7-7-7-7-7-7-7-7-|-9-9-9-9-9-9-9-9-7-7-7-7-7-7-7-7---------|
E|---------------------------------|-----------------------------------------|
Otros videos de esta canción
    50 exhibiciones
      • ½ Tono
      • Am
      • Bbm
      • Bm
      • Cm
      • C#m
      • Dm
      • Ebm
      • Em
      • Fm
      • F#m
      • Gm
      • G#m
    • Agregar a la lista

    Afinación de cifrado

    Afinador online

      OK