Cifra Club

Kyoto

Skrillex

Cifrado: Principal (guitarra y guitarra eléctrica)
Selo Cifra Club: esta cifra foi revisada para atender aos critérios oficiais da nossa Equipe de Qualidade.
tono: A
E|-------------------------| |---------------------------------------|
B|-------------------------| |---------------------------------------|
G|-------------------------| X4|---------------------------------------|X2
D|--4--------5--4----------| |----4----------12----------9--------4--|
A|--4--------5--4----------| |----4----------12----------9--------4--|
E|--4--------5--4----------| |----4----------12----------9--------4--|

0:44                         
                                 
E|--14--14--14--17--16--15--14--14--------14--14--14--12--15--15--14--14-|
B|-----------------------------------------------------------------------|
G|-----------------------------------------------------------------------| X4
D|-----------------------------------------------------------------------|
A|-----------------------------------------------------------------------|
E|-----------------------------------------------------------------------|

1:05 YO SKRILL DROP IT HARD!!

E|-------------14-14-14-17-16-15-14-14---------------------------------------|
B|---------------------------------------------------------------------------|
G|---------------------------------------------------------------------------|
D|-----------------------------------------4-4-4-4-4-4-4---------------------|
A|-----------------------------------------4-4-4-4-4-4-4---------------------|
E|-----------------------------------------4-4-4-4-4-4-4---------------------|

14-14-14-12-15-15-14-14--9/14-14-9/14-141414|
E|--------------------------------------------|
B|--------------------------------------------|
G|--------------------------------------------| X4
D|--------------------------------------------|
A|--------------------------------------------|

1:27 Bridge:

E|-------14--14-13-10h12p10-9---9-9h10p9-7-7h9p7-5-7-4-5-2-2-2-2-222222---|
B|-7--7-----------------------7-------------------------------------------|
G|------------------------------------------------------------------------|
D|------------------------------------------------------------------------| X2
A|------------------------------------------------------------------------|
E|------------------------------------------------------------------------|

1:49 YO SKRILL DROP IT HARD!!

E|-------------14-14-14-17-16-15-14-14---------------------------------------|
B|---------------------------------------------------------------------------|
G|---------------------------------------------------------------------------|
D|-----------------------------------------4-4-4-4-4-4-4---------------------|
A|-----------------------------------------4-4-4-4-4-4-4---------------------|
E|-----------------------------------------4-4-4-4-4-4-4---------------------|
-
14-14-14-12-15-15-14-14--9/14-14-9/14-141414|
E|--------------------------------------------|
B|--------------------------------------------|
G|--------------------------------------------| X4
D|--------------------------------------------|
A|--------------------------------------------|

2:11 Rap part
E|-------------------------|
B|-------------------------|
G|-------------------------| X4
D|--4--------5--4----------|
A|--4--------5--4----------|
E|--4--------5--4----------|

2:33 Back to intro 
E|-------------------------|
B|-------------------------|
G|-------------------------| X4
D|--4--------5--4----------|
A|--4--------5--4----------|
E|--4--------5--4----------|

2:55 Back to bridge

E|-------14--14-13-10h12p10-9---9-9h10p9-7-7h9p7-5-7-4-5-2-2-2-2----------|
B|-7--7-----------------------7-------------------------------------------|
G|------------------------------------------------------------------------|
D|------------------------------------------------------------------------| X2
A|------------------------------------------------------------------------|
E|------------------------------------------------------------------------|

Finishing Chord
E|---|
B|---|
G|---|
D|-4-|  
A|-4-| 
E|-4-|
Otros videos de esta canción
31 exhibiciones
    • ½ Tono
    • A
    • Bb
    • B
    • C
    • Db
    • D
    • Eb
    • E
    • F
    • F#
    • G
    • Ab
  • Agregar a la lista

Afinación de cifrado

Afinador online

    OK