Cifra Club

Scary Monsters And Nice Sprites

Skrillex

Cifrado: Principal (guitarra y guitarra eléctrica)
Selo Cifra Club: esta cifra foi revisada para atender aos critérios oficiais da nossa Equipe de Qualidade.
tono: F
E|E|-----------------------------------------------------------------------------||
                 Scary Monsters and Nice Sprites - Skrillex
E|E|-----------------------------------------------------------------------------||
Tabbed by:coker

Tuning: Dropped D 

[Main Lead]
0:00 - 0:26

E|--------------------------------------------------------------------------|
B|--------------------------------------------8-----------------------------|
G|---------3--7-5-3-----------------------------7-----10--------------------|
D|---5-3-5--5-------3-----3-1-0-----3-------0-----8p7----8-7\5--------------|
A|-5------------------1-0-------3-1---1---1---------------------------------|
E|--------------------------------------3-----------------------------------|


[Chorus]
0:13 - 0:26

E|--------------------------------------------------------------------------|
B|--------------------------------------------------------------------------|
G|--------------------------------------------------------------------------|
D|--1-----3-----5-----5\3---------------------------------------------------|
A|--1-----3-----5-----5\3---------------------------------------------------|
E|--1-----3-----5-----5\3---------------------------------------------------|


[Quiet music]
singing part 0:26 - 0:40


[Dubstep part]

0:41 - 0:50 This is very tricky because there is no real instrumentation so 
it is all just what bits and pieces I picked up. Chords palm muted. Starts at the bass drop

E|--------------------------------------------------------------------------|
B|--------------------------------------------------------------------------|
G|--------------------------------------------------------------------------|
D|----------------5-----6---------------------------------------------------|
A|--------8*~-----5-----6---------------------------------------------------|
E|-5\0------------5-----6---------------------------------------------------|
Otros videos de esta canción
    102 exhibiciones
      • ½ Tono
      • A
      • Bb
      • B
      • C
      • Db
      • D
      • Eb
      • E
      • F
      • F#
      • G
      • Ab
    • Agregar a la lista

    Afinación de cifrado

    Afinador online

      OK