Cifra Club

Weak

Skunk Anansie

Cifrado: Versão 2 (guitarra y guitarra eléctrica)
Selo Cifra Club: esta cifra foi revisada para atender aos critérios oficiais da nossa Equipe de Qualidade.
tono: F
#This file is the author's own work and represents their interpretation of the#
#song. You may only use this file for private study, scholarship, or research.#


Transcribed by: Andrew Biles
Standard Tuning

This is a great song to play and suprisingly easy, sounds good as well.

 Intro
|-------------------------------------------------------
|-------------------------------------------------------
|-----------7--5-----5--5h7p5----------------------7--5-
|-2--2------7--5-----5--------5h7p5---5--2--2------7--5-
|-2--2--7h9-------7-----------------7----2--2--7h9----7-
|-0--0-----------------------------------0--0----------- 

 Verse
|--0----2----0---------
|--0----3----1---------
|--0----2----0---------
|--2----0----2---------
|--2---------3---------
|--0-------------------

 Chorus
|---------------------------------------|----------------
|---------------------------------------|----------------
|-----------7--5-----5--5h7p5-----------|-----------7--5-
|-2--2------7--5-----5--------5h7p5---5-|-2--2------7--5-
|-2--2--7h9-------7-----------------7---|-2--2--7h9----7-
|-0--0----------------------------------|-0--0-----------
                                     x3

 Middle 8
|-3----5---------------|--14-
|-3----5----5----7--8--|--15-
|-4----6----5----7--7--|--16-
|-5----7----5----7--7--|-----
|-5----7----3----5--5--|-----
|-3----5---------------|-----

 Solo (performed with slight variations)
|-15-15-15-15-15p12-12-12-12/10-10-10-10h12-12--12--------------------------
|--------------------------------------------------12-12-12-12-12p10--10h12-
|---------------------------------------------------------------------------
|---------------------------------------------------------------------------
|---------------------------------------------------------------------------
|---------------------------------------------------------------------------

 Outro
|-----------------------------------|----------------
|-----------------------------------|----------------
|------------7--\7-7-5--------------|-----------7--5-
|-2--2-------7---x-x-x--7-7-7-7-7/5-|-2--2------7--5-
|-2--2--7h9-----\5-5-3--x-x-x-x-x---|-2--2--7h9------
|-0--0------------------5-5-5-5-5/3-|-0--0-----------
                                 x3

any questions? *
Otros videos de esta canción
    2 exhibiciones
      • ½ Tono
      • A
      • Bb
      • B
      • C
      • Db
      • D
      • Eb
      • E
      • F
      • F#
      • G
      • Ab
    • Agregar a la lista

    Afinação da cifra

    Afinador online

      Ops (: Contenido disponible solo en portugués.
      OK