Cifra Club

Horror Movie

Skyhooks

Tab de bajo: Principal
P-palm mute
Intro:(8 Rythym through whole song)
       4
G--------------------|
D-----------------5--|Repeat
A--------7-7-7-5-7-7-|
E-------0-0-0--------|

Chorus:
Above x3 (Horror movie right there on my t.v)
Shockin' me right out of my brain
G-------------|
D-7777-54-----| x2
A--------5-4--|
E-------------|

All verses:
G----------------------------------|
D----------------------------------|
A----------------------------------|
E-55555P-55555P-55555P-00-22-33-44-|
This is the correct tab. My bass teacher taught me it.
It is a simple song if u've heard it.
00:00 / 00:00
Otros videos de esta canción
Repetir
Otros videos de esta canción
Composición de Greg Macainsh
9 vistas

0 comentarios

Ver todos los comentarios

¿Lograste tocar?

0 Tocaron 0 Aún no

¡Graba un video tocando Horror Movie y envíanoslo!

00:00 / 00:00
OK