Cifra Club

Jukebox In Siberia

Skyhooks

Tab de bajo: Principal
Jukebox in Siberia


Written by Greg Macainsh 1990


G||-----------------------|-----------------------|-----------------------|
D||-----------------------|-----------------------|-----------------------|
A||--1---------1----------|--1---------1----------|--8---------8-------6--|
E||-------1---------1--4--|-------1---------1--4--|-------8---------8-----|

-----------------------||
-----------------------||
--6---------6-------4--||
-------6---------6-----||


Maintain this for virtually the whole song except during the main riff when you play 
what the lead guitar plays. This can be found on one of my other Jukebox in Siberia tabs on 
Guitar Archive.
00:00 / 00:00
Otros videos de esta canción
Repetir
Otros videos de esta canción
Compositor no encontrado.
9 vistas

0 comentarios

Ver todos los comentarios

¿Lograste tocar?

0 Tocaron 0 Aún no

¡Graba un video tocando Jukebox In Siberia y envíanoslo!

00:00 / 00:00
OK