Enviar cifraEntrar

Starlight

Slash

Acordes: Principal
reproducciones 2.171
Tono: F
(intro)


E|----------------------------------|--------------------------------|
B|-12h13-------13----13-------------|-------------13----13-----------|
G|-12----------12h14-12-12----12-12-|-12----------12h14-12--12----12-|
D|-12h14----------------12h14-12-10-|-12h14-----------------12h14-12-|
A|----------------------------------|--------------------------------|
E|----------------------------------|--------------------------------|


E|-------------------15----------|--------------------------------|
B|-12---------12h13-----13-------|-12----------12h13-12--12h13-12-|
G|-------------------------12----|--------------------------------|
D|-12---------12h14-----------14-|-12----------12h14-12--12h14-12-|
A|-------------------------------|--------------------------------|
E|-------------------------------|--------------------------------|


E|--8-----8---------------8---------|------------------8h10-8---8----8--|
B|-10______-----8h10p8------10p8----|--8h10----8h10----10---10--8h10-8--|
G|-10______--10--------10--------10-|-10------10------------------------|
D|----------------------------------|-----------------------------------|
A|----------------------------------|-----------------------------------|
E|----------------------------------|-----------------------------------|


E|--------------------------------|--------------------------------|
B|-12h13-------13----13-----------|-------12-----------------------|
G|-12----------12h14-12-------12--|-12----------12\10----10--------|
D|-12h14----------------12h14___--|-12----------12\10----10--------|
A|--------------------------------|-14----------14\12--------12/14-|
E|--------------------------------|--------------------------------|


E|-------------------|-------------8-------|--------------|
B|-------------------|---------------8-----|--------------|
G|--12-------\---5-7-|-7b9_____________9r7-|-5~-----------|
D|--12-------\-------|---------------------|--------------|
A|-(14)--------------|---------------------|--------------|
E|-------------------|---------------------|--------------|


(riff - verso)

E|----------------------------|------------------------|-------------------|
B|----------1-----------------|---------1--------------|-------------1-1---|
G|--0----------0h2-0----------|-0---------0h2-0--------|---------0---0-0-0-|
D|--0h2--------2---2--0h2-0---|-0h2-------2---2--0h2-0-|---------0h2-----2-|
A|--------------------3-----3-|------------------------|-------------------|
E|----------------------------|------------------------|-3-----------------|


"In the distance, light years from tomorrow          far beyond  yesterday"



E|---------------------|---------------------------|-------------------------|
B|---------0-----------|---------1-----------------|---------1---------------|
G|-0----------0--0-0---|-(0)--------0h2-0----------|-0---------0h2-0------0--|
D|-0---------------0h2-|-(2)--------2---2--0h2-0---|-0h2-------2---2--0h2--0-|
A|---------------------|-------------------3-----3-|-------------------------|
E|---------------------|---------------------------|-------------------------|


                 "She is watching,   heart aching with sorrow     and she is"


E|--------------3------|----------------------|--------------------------|
B|-----------------1---|----------------------|-1----------------1-------|
G|--------0------------|-0-------0---0--0---0-|-2--------0h2p0-----2p0---|
D|--------0h2-2------2-|-0-------0h2-0--0h2-0-|-3--------------3-------3-|
A|---------------------|----------------------|--------------------------|
E|-3-------------------|----------------------|--------------------------|


   "broken       as she waits.     Hoping when  all    is said   and"


E|-----------------------------|-------------------------|--------------------|
B|-1------1-------1h3-1--------|-------------------------|--------------------|
G|-0h2----0h2---2-2---2--0h2-0-|----------0h2-0------0---|-----0--0-----------|
D|-3------3-----3--------3-----|----------2---2--0h2---0-|--------------------|
A|-----------------------------|-3-----------------------|----------3----3----|
E|-----------------------------|-------------------------|-3--------1----1----|


  "done             we learn to love     and be    as     one"

(ponte)

E|-------------------------|
B|-------------------------|
G|-------------------------|
D|-5--5--5--5--5--5--5--5--|
A|-5--5--5--5--5--5--5--5--|
E|-3--3--3--3--3--3--3--3--|

   PM........  <  <  <  <

(refrão 2x)

E|--------------------------|-----------------------|--------------|---------|
B|--------------------------|-----------------------|-0--------1-1-|-0-------|
G|-----------5---5----------|-----------5---5-------|-0--------0-0-|-0-------|
D|-5----5----5h7-5--5-------|-5---------5h7-5-5---5-|-0--------2-2-|-0-------|
A|-3----3-----------5h7-5p3-|-5h7-------------5h7-5-|-x------------|---------|
E|--------------------------|-----(8)---------------|-3------------|-3-------|


"Oh Starlight,  don't you cry we're gonna make it right before tomorrow"
"Oh Starlight,  don't you cry we're gonna find a place where we belong. And so you"


E|-------------------|--------------------|
B|-------------------|--------------------|
G|-------------2--0--|-0h2--2------2------|
D|-3----3------3--3--|-3----3------3--3/5-|
A|-3----3------3--3--|-3----3------3------|
E|-1----1------1--1--|-1----1------1------|


 "know you'll never shine alone"

(riff verso)

"There are shadows sleeping on the horizon
Leave us scared and so afraid
As the fall out of a world divided
It brings her tears and so much pain
And so we take cover from the dark
Hoping to find where we can start"

(refrão 2)

(fim do refrão 2) (3:04)

E|---------------------|---------------------|---------------------------|
B|---------------------|---------------------|---------------------------|
G|-0----0------------0-|---------------------|---------------------------|
D|-2----2--------0h2---|-5----5----3----3----|-5-5--5-5--5-5--5-5--5--5--|
A|-3----3--------------|-5----5----3----3----|-5-5--5-5--5-5--5-5--5--5--|
E|---------------------|-3----3----1----1----|-3-3--3-3--3-3--3-3--3--3--|


(3:14)
(guitarra 1)

    Bb          Dm            C           Gm
E|-------------------------|-------------------------|
B|-------3-----------6-----|-------5-----------3-----|
G|----3-----3-----7-----7--|----5-----5-----3-----3--|
D|-------------------------|-------------------------|
A|-1-----------5-----------|-3-----------------------|
E|-------------------------|-------------3-----------|

 |
(guitarra 2)

E|-6-----------5-----------|-3-----------3-----------|
B|-6-----------6-----------|-5-----------3-----------|
G|-7-----------7-----------|-5-----------3-----------|
D|-8-----------7-----------|-5-----------5-----------|
A|-------------------------|-------------------------|
E|-------------------------|-------------------------|

   "You will see when the mountains fall and turn to dust"

    Bb          Dm            C
E|-------------------------|-------------------------|
B|-------3-----------6-----|-------5----------6p5----|
G|----3-----3-----7-----7--|----5-----5-----5-----5--|
D|-------------------------|-------------------------|
A|-1-----------5-----------|-3-----------------------|
E|-------------------------|-------------------------|
 |
E|-6-----------5-----------|-3-----------------------|
B|-6-----------6-----------|-5-----------------------|
G|-7-----------7-----------|-5-----------------------|
D|-8-----------7-----------|-5-----------------------|
A|-------------------------|-3-----------------------|
E|-------------------------|-------------------------|
  "and there's one thing that won't change"


    Bb          Dm            C           Gm
E|-------------------------|-------------------------|
B|-------3-----------6-----|-------5-----------3-----|
G|----3-----3-----7-----7--|----5-----5-----3-----3--|
D|-------------------------|-------------------------|
A|-1-----------5-----------|-3-----------------------|
E|-------------------------|-------------3-----------|

 |
 |

E|-6-----------5-----------|-3-----------3-----------|
B|-6-----------6-----------|-5-----------3-----------|
G|-7-----------7-----------|-5-----------3-----------|
D|-8-----------7-----------|-5-----------5-----------|
A|-------------------------|-------------------------|
E|-------------------------|-------------------------|

    "I believe there's something within each of us that"

    F
E|-------------------------|--------------------------|
B|-------1-----------1-----|--------6-----6-----6-----|
G|----2-----2-----2-----2--|-----5-----5-----5-----5--|
D|-3-----------3-----------|-5/7----------------------|
A|-------------------------|--------------------------|
E|-------------------------|--------------------------|
 |
E|-------------------------|----------------------------|
B|-------------------------|----------------------------|
G|-------------------------|-/10---10--------10--10-----|
D|-3---------------3---3---|-/10---10--------10--10-----|
A|-3---------------3---3---|-/8----8----------8---8-----|
E|-1---------------1---1---|------------------------15\-|
   "always               stays                and we'll"


    D5
E|-------------------------|--------------------------|
B|-------------------------|--------------------------|
G|-------------------------|--------------------------|
D|-7--7--7--7--7--7--7--7--|-7--7--7--7--7--7--7--7---|
A|-7--7--7--7--7--7--7--7--|-7--7--7--7--7--7--7--7---|
E|-5--5--5--5--5--5--5--5--|-5--5--5--5--5--5--5--5---|

 |
(solo)

E|----------------------------------------------------------------------------|
B|-------------------------------------------------------------------10h12h13-|
G|----------------------------------------------------9h10p9--9h10h12---------|
D|---------9--9----------------9h10p9--9h10p12-9h10h12------12----------------|
A|-9h10h12--12--9h10h12-9h10h12------12---------------------------------------|
E|----------------------------------------------------------------------------|

         "always                                    remain"


----------------------|-------------------------------------------------------|
-13b15-13p12-13p12p10-|-13b15--13p12p10-13p12h13p10h13------------------------|
----------------------|-------------------------------12p11p9-12-11-9-11-b12--|
----------------------|-------------------------------------------------------|
----------------------|-------------------------------------------------------|
----------------------|-------------------------------------------------------|

                         "as long as love never fades"


    Em
|--------------------------------------------------|
|---------------------------------15---15-15-12-15-|
|-(b12)r11-9-12-------------14b16____--------------|
|---------------14~---12h14------------------------|
|--------------------------------------------------|
|--------------------------------------------------|


   G
|---------------------------------------------------------------------------|
|-12h15p12--12--------------------------------------------------------------|
|---------14--15\14-12--14-12p11--14--12p11---------------------------------|
|---------------------14--------14--14-----14p12-----14p12------------------|
|-----------------------------------------------14p12-----14p12h14p12\10----|
|-----------------------------------------------------------------------12--|


   Em                                         C
|------------------------------------------|------------15b17-15-------------------|
|------------------------------------------|-15b17--------------18-17-15--------17-|
|---------------------------------------16-|----------------------------16-14------|
|----------------------------------12/14---|---------------------------------17----|
|-12b14~---12b14r12p10-12PH----------------|---------------------------------------|
|--------------------------10h12~----------|---------------------------------------|


   G
|------------------------------------------------------|
|-15~--13-15-13-12tr13-11tr12-12-----------------------|
|-------------------------------14-12-14-12h14p12~-----|
|------------------------------------------------------|
|------------------------------------------------------|
|------------------------------------------------------|


   Eb
|---------------------------------------------------------|
|----16-18b20~-----------18b20-18-16-------------18-------|
|-/15--------------------------------17b19r17-15----17b19-|
|---------------------------------------------------------|
|---------------------------------------------------------|
|---------------------------------------------------------|


   Bb                                          F
|-------------------------------------------|-----------------------------------|
|---------------------------------16-18b20--|-18b20--18-18~---------20b22-20b22-|
|-17b19____r17-15---17--15~----/15----------|---------------------17------------|
|-----------------17--17--------------------|------------------/17--------------|
|-------------------------------------------|-----------------------------------|
|-------------------------------------------|-----------------------------------|


   C                                            G
|--------------------------------------------|--------------------------------|
|-20b22-20-18-20-----------------------20b22-|-20b22-20-20~-----20~----18~--18|
|----------------19b21-19-17--17~---17-------|--------------------------------|
|---------------------------19----19---------|---------------/21-----19---19--|
|--------------------------------------------|--------------------------------|
|--------------------------------------------|--------------------------------|


   G
|----------------------------3---------------------8------|
|----17---15---13---12---------6-3--------------/8__------|
|------------------------5b7-------5b7r5---5--------------|
|-/17--/15--/14--/12---------------------5----------------|
|---------------------------------------------------------|
|---------------------------------------------------------|


(refrão)
(4:47)

|--15h17--15h17----15h17p15--20-17-------|
|--18-----18---------------18-----20-18--|
|--17-----17-----------------------------|
|----------------------------------------|
|----------------------------------------|
|----------------------------------------|


|-15----15-------15------|---------------------|---------------------|
|------------------------|----12---------10----|-/12-----------------|
|-17----17-----17--17----|-12----12--10-----10-|-/12-----------------|
|---------------------17-|-12----12--10-----10-|-/12-----------------|
|------------------------|---------------------|---------------------|
|------------------------|---------------------|---------------------|
  • 1
  • 2
  • 3
  • 4
  • 5
  • 6
  • 7
  • 8
  • 9
  • 10
  • 11
  • 12
    Acordes para:
      Composición: Slash ft Myles KennnedyColaboración y revision:
      • highvoltage

      0 comentarios

        mostrar mas comentarios

        ¿Conseguiste tocar?

        6tocaron2aún no

        ¡Grave un vídeo tocando Starlight y envie para nosotros!

        00:00 / 00:00
        outros vídeos desta música
        repetirqualidadeautomática
        • automática
        Outro vídeos desta música
          00:00 / 00:00
          automática
          • automática
          1 versión de Contrabajoreproduccionescontribuciones
          1 versión de Guitar Proformatodownloadscontribución
          cerrarplay/pause subir/bajar velocidad
            acordes
            cerrar
            OK
            Feedback