Cifra Club

Too Far Gone

Slash

Cifrado: Completa (guitarra y guitarra eléctrica)
tono: Db (con acordes en la forma de D) Afinación: Eb Ab Db Gb Bb Eb
Too Far Gone (SLASH)

Tom Original: F
Afinação: Eb.Ab.Db.Gb.Bb.Eb.

-----------------------
-----------------------
-----------------------
--4-----------------2--
--4---------------4----
--2---2-0-2-0-2-5------

       < PAUSA >

-----------------------
-----------------------
-----------------------
--4-----------------2--
--4---------------4----
--2---2-0-2-0-2-5------

       < PAUSA >

----------------------------
----------------------------
----------------------------
--x-2--4-----------------2--
--x-2--4---------------4----
--x-0--2---2-0-2-0-2-5------

       < PAUSA >

---------------------------------------------
---------------------------------------------
---------------------------------------------
--4-----------------2---4-----------------2--
--4---------------4-----4---------------4----
--2---2-0-2-0-2-5-------2---2-0-2-0-2-5------

-----------------------------------------------
-----------------------------------------------
-----------------------------------------------
--2--4-----------------2--4-----------------2--
--2--4---------------4----4---------------4----
--0--2---2-0-2-0-2-5------2---2-0-2-0-2-5------

A
A kingdom lost, a ransom paid                   (A = x x 7 9 10 x)
         B        Db      Gb
A dying wish you got your way

---------------------------------------------
---------------------------------------------
---------------------------------------------
--4-----------------2---4-----------------2--
--4---------------4-----4---------------4----
--2---2-0-2-0-2-5-------2---2-0-2-0-2-5------

A
Your foolish pride a bitter rage
                     B   Db   B
Brought to dust and laid to waste
                               D  (RIFF 1)
Your empire lost with nothing gained
      Em (RIFF 2)      F#
How could you let it fall?

RIFF 1:           RIFF 2:
=======           =======
------------      ---------------------
------------      ---------------------
------------      ------------11p9-----
--------7~--      ---------9-------11--
--5-7/9-----      --7-9/11-------------
------------      ---------------------

----------------2----------------------------------------
----------------3----------------------------------------
----------------2----------------------------------------
--------------2-0----4-2-4-2---2--------------4----2--4-- (2x)
--------0-2-4----------------4-2----4-2-0-----4----2--4--
--0-2-4------------------------0----------4-0-2----0--2--

----------------2----------------------------------------------
----------------3-------------------------------2--------------
----------------2-------------------------------2--------------
--------------2-0----4-2-4-2---2----------------2---6---4---2--
--------0-2-4----------------4-2----4-2-0-------0---6---4---2--
--0-2-4------------------------0----------4-0-------4---2---0--

--2------------------------------
--3------------------------------
--2------------------------------
--0----4-2-4-2---2---------------
---------------4-2----4-2-0------
-----------------0----------4-0--

          D   Em   Gb
Now it's all been decided
         D               Em                  Gb
There is nothing you can do, you're too far gone
         D   Em     A      Ab  Gb  Em
But it's always the same old song
            D               Em
There ain't nothing left to prove
               Gb
You're too far gone

---------------------------------------------
---------------------------------------------
---------------------------------------------
--4-----------------2---4-----------------2--
--4---------------4-----4---------------4----
--2---2-0-2-0-2-5-------2---2-0-2-0-2-5------

-----------------------------------------------
-----------------------------------------------
-----------------------------------------------
--2--4-----------------2--4-----------------2--
--2--4---------------4----4---------------4----
--0--2---2-0-2-0-2-5------2---2-0-2-0-2-5------

A
Burn your bridges to the ground
                    B   Db     Gb
Throw your tantrums scream out loud

---------------------------------------------
---------------------------------------------
---------------------------------------------
--4-----------------2---4-----------------2--
--4---------------4-----4---------------4----
--2---2-0-2-0-2-5-------2---2-0-2-0-2-5------

A
Play the martyr, play the fool
            B     Db      B
Tell the world it wasn't you
                               D (RIFF 1)
Who pulled the trigger in the end
          Em (RIFF 2)    F#
Like you know you always do

----------------2----------------------------------------
----------------3----------------------------------------
----------------2----------------------------------------
--------------2-0----4-2-4-2---2--------------4----2--4-- (2x)
--------0-2-4----------------4-2----4-2-0-----4----2--4--
--0-2-4------------------------0----------4-0-2----0--2--

----------------2----------------------------------------------
----------------3-------------------------------2--------------
----------------2-------------------------------2--------------
--------------2-0----4-2-4-2---2----------------2---6---4---2--
--------0-2-4----------------4-2----4-2-0-------0---6---4---2--
--0-2-4------------------------0----------4-0-------4---2---0--

--2------------------------------
--3------------------------------
--2------------------------------
--0----4-2-4-2---2---------------
---------------4-2----4-2-0------
-----------------0----------4-0--

              D   Em   Gb
'Cause it's all been decided
            D            Em                Gb
There is nothing you can do you're too far gone
           D  Em     A   Ab  Gb  Em
But it's always the same old song
             D              Em
There ain't nothing left to prove
               Gb
You're too far gone

BRIDGE:
=======
---------------------------------------------------------~
--------------------5~------5---4-5---4-5---4---4-5-6-7--|
------------------6-------6---4-----4-----6---6----------|
--4---4---4---4-7-------7--------------------------------|
--------7---7--------------------------------------------|
---------------------------------------------------------|
                                                         |  (2x)
---------------------------------------------------------|
--------------5-------------5---4-5---4-5---4---4-5-6-7--|
----------------6---------6---4-----4-----6---6----------|
--4---4---4-------7-4~--7--------------------------------|
--------7---7--------------------------------------------|
---------------------------------------------------------|

A kingdom lost, a ransom paid
A dying wish you got your way
A kingdom lost a ransom paid
Now you can see that you're to blame

SOLO:
=====

          D   Em   Gb
Now it's all been decided
         D               Em                  Gb
There is nothing you can do, you're too far gone
         D   Em     A      Ab  Gb  Em
But it's always the same old song
            D               Em
There ain't nothing left to prove
               Gb
You're too far gone... You're too far gone...  You're too far gone...

-----------------------------------------------|
-----------------------------------------------|
-----------------------------------------------|
--4-----------------2---4-----------------2----|
--4---------------4-----4---------------4------|
--2---2-0-2-0-2-5-------2---2-0-2-0-2-5--------|
                                               |  (2x)
-----------------------------------------------|
-----------------------------------------------|
-----------------------------------------------|
--2--4-----------------2--4-----------------2--|
--2--4---------------4----4---------------4----|
--0--2---2-0-2-0-2-5------2---2-0-2-0-2-5------|

---------
---------
---------
--2--4~--
--2--4~--
--0--2~--
Composición de M. Kennedy / S. Hudson
Colaboración y revisión:
  • Marcio Vieira
4 vistas
    • ½ Tono
    • A
    • Bb
    • B
    • C
    • Db
    • D
    • Eb
    • E
    • F
    • F#
    • G
    • Ab
  • Agregar a la lista

    0 comentarios

    Ver todos los comentarios
    00:00 / 00:00
    Outros vídeos desta música
    Repetir Calidad Automático
    Outros vídeos desta música
    00:00 / 00:00
    Automático
    OK