Cifra Club

Doin Fine

Slash's Snakepit

Cifrado: Principal (guitarra y guitarra eléctrica)
Já pensou em usar uma coleção de roupas do Cifra Club? Responda as perguntas abaixo e nos ajude nessa missão! →
tono: C
DOIN' FINE
Written by SLASH/Eric Dover


  
Intro.
-------------------------------------------------------------------------------------------------
-------------------------------------------------------------------------------------------------
---2-0--------5-2-(0)-----------------------------------------------------------2--2~~~-----
--------4-2-0----------4-2-0-4-2-(0)--1--2-1-2-1-0---0-1-0----0-------2----------------
----------------------------------------------------------3---------3----3-4-------------------
-------------------------------------------------------------------------------------------------
*Play extremely fast

Riff 1:
                                        ½ 
-------------------------------------------------------------------------------------------------
-------------------------------------------------Ç----------------------------------------------
---------------5---------------------------5--7­¯--5------------------------------------------
--7--7-(5)----7--5--6-7--5-7-(7)-5---------------7---------------------------------------
-------------------------------------------------------------------------------------------------
-------------------------------------------------------------------------------------------------

  
Composición de Eric Dover / Slash
47 vistas
    • ½ Tono
    • A
    • Bb
    • B
    • C
    • Db
    • D
    • Eb
    • E
    • F
    • F#
    • G
    • Ab
  • Agregar a la lista

    0 comentarios

    Ver todos los comentarios
    00:00 / 00:00
    Outros vídeos desta música
    Repetir Calidad Automático
    Outros vídeos desta música
    00:00 / 00:00
    Automático
    OK