Cifra Club

Now's the time

Slick Shoes

Cifrado: Principal (guitarra y guitarra eléctrica)
Selo Cifra Club: esta cifra foi revisada para atender aos critérios oficiais da nossa Equipe de Qualidade.
tono: F
e|--------------------------------------------
b--------------------------------------------
g--------------------------------------------
d--7--7--7--7-----------------------10-10---10-10-10
a--5--5--5--5--7--7--7--7--7---7--7--7--7---8--8--8-
e|--------------4--4--5--5--5---5--5----------------


e|-----------------------------------------------
b-----------------------------------------------
g-----------------------------------------------
d-----------------------------------------------
a--7--7--10-10-10---10-10--5--5--5--------------
e|--5--5---8--8--8----8--8--3--3--3--------------



a musica toda é tocada nos acordes:

Dm  Bb  F  C


Letra

All day long
I've sat here for
I cannot find my way
Left or right, I'll still go on
But will I see your face

[Chorus]
But now is the time
We will survive
To see the light of another day
But now is the time
We will survive
To see the light of another

Days go by
What can I do?
What did I do for you?
And in the end
What will there be
And how much left of me
Otros videos de esta canción
    70 exhibiciones
      • ½ Tono
      • A
      • Bb
      • B
      • C
      • Db
      • D
      • Eb
      • E
      • F
      • F#
      • G
      • Ab
    • Agregar a la lista

    Afinação da cifra

    Afinador online

      Ops (: Contenido disponible solo en portugués.
      OK