Cifra Club

Closer To The Sun Solo

Slightly Stoopid

Cifrado: Principal (guitarra y guitarra eléctrica)
tono: G
Tabbed by:  Gibson291
Email:  *

Tuning:  standard


This is my first tab, so...  If you rate it, be honest.  Criticism never hurts.


e|-------------------------------------------------------------------------|
B|--------------------------9-------7--------------------------------------|
G|--------------------------9p7-----7p5---5--------------------------------|
D|------------7-5---------------9-0-----7---7-5h7p5------------7-5---------|
A|-0--4-5-5/7-----7~--5-6-5-------------------------0--4-5-5/7-----7~-5-6-5|
E|-------------------------------------------------------------------------|

e|-7--5--------------------------------------------------------------------|
B|-9--7-7-----------------------------------------------7------------------|
G|-9--7-7p5---5-----------------------------------------7p5---5------------|
D|-9--7-----7---7-5h7p5------------7-5----------------------7---7-5h7p5----|
A|-7--5-----------------0--4-5-5/7-----7~--5-6-5--5h7p5--------------------|
E|-------------------------------------------------------------------------|

e|-------------------------------------------------------------------------|
B|-------------------------------------------------------------------------|
G|-------------------------------------------------------------------------|
D|------------7-5------------------------------7-5---6h7p6-------------5-3-|
A|-0--4-5-5/7-----7~--5-6-5--5h7p5--0--4-5-5/7-----7-------7---2-3-3/5-----|
E|-----------------------------------------------------------3-------------|

e|--------------------------------------------------------------x5-----x5--|
B|--------------------------------------------------------7-----x5-----x5--|
G|--------------------------------------------------------7-----x6-----x6--|
D|---4h5p4---4-5-5/7------------7-5---6h7p6-----------5-3-7-----x7-----x7--|
A|-5-------5---------0--4-5-5/7-----7---------2-3-3/5-----5-----x7-7-7-x7--|
E|------------------------------------------3---------------5-5-x5-----x5--|
                                                                (A)
e|-----x7-----x7------x3-----x3------x5------x5--|
B|-----x9-----x9------x3-----x3------x7------x7--|
G|-----x9-----x9------x4-----x4------x7------x7--|
D|-----x9-9-9-x9------x5-----x5------x7--7-7-x7--|
A|-7-7-x7-----x7------x5-5-5-x5--5-5-x5------x5--|
E|-----x------x---3-3-x3-----x3------x-------x---|
       (E)            (G)            (D)


to get the right rythym and stuff listen to the song, it's really not hard to get right. 
and sorry about any mistakes, remember it's my first tab.


| /  slide up
| \  slide down
| h  hammer-on
| p  pull-off
| ~  vibrato
| +  harmonic
| x  Mute note
============================================================================
00:00 / 00:00
Otros videos de esta canción
Repetir
Otros videos de esta canción
Compositor no encontrado.
14 vistas
    • ½ Tono
    • A
    • Bb
    • B
    • C
    • Db
    • D
    • Eb
    • E
    • F
    • F#
    • G
    • Ab
  • Agregar a la lista

    0 comentarios

    Ver todos los comentarios

    ¿Lograste tocar?

    0 Tocaron 0 Aún no

    ¡Graba un video tocando Closer To The Sun Solo y envíanoslo!

    00:00 / 00:00
    OK