Cifra Club

Coolie Man

Slightly Stoopid

Cifrado: Principal (guitarra y guitarra eléctrica)
tono: C
Tabbed by: Tunaman
Email:Pat_H_F*

Tuning: Standard 440

This is the First tab I’ve wrote… and it’s fitting I think.  If this song doesn’t put a 
on your face I don’t know what will.  Enjoy!

Guitar 1 (Rhythm - Miles)

Intro & Verse & Chorus
e|------3p0-------0---0--0----0-0-----0----0-0--------0------------|
B|------3p0-------0h1-1--3p1--1-1-----1----1-1--------1------------|
G|------0----0-0--2---2--2----2-2--0--0h2--2-2--------0------------| x3
D|------0----0-0--2---2--2----2-2--0--0h3-------0-0h2--------------|
A|------2----2-2--0---0--0----0----------------0-0h3-----3p2p0-2p0|
E|--3-3------------------------------------------------------------|

This at the end of intro and at the end of the Chorus
                                                       r
e|-----3p0------0---0-0---0-0---0---0-0-------------------0-0-----0-0-|
B|-----3p0------0h1-1-3p1-1-1---1---1-1---------1-1-1-1---1-1-----1-1-|
G|-----0----0-0-2---2-2---2-2-0-0h2-2-2---------0-0-0-0h2-2-2-----0-0-|
D|-----0----0-0-2---2-2---2-2-0-0h3-----0-0h2---2-2-2—0h3-----0-2-----|
A|-----2----2-2-0---0-0---0------------0-0h3---3-3-3-0-------0-3-----|
E|--3-3---------------------------------------------------------------|

This part is basically just improv right here, just get the timing right and it will 
good.  This part is also at the end of every riff.

e|-----------|
B|-----------|
G|-----------|
D|-----------|
A|-3p2p0—2p0-|
E|-----------|

I’m currently figuring out what Kyle is doing throughout the song… it’s mostly improv 
I WILL find out what he plays note for note.  Until then enjoy Miles’ rhythm part.

Chords:
     G   Am    F   C
e|---3----0----0---0---|
B|---3----1----1---1---|
G|---0----2----2---0---|
D|---0----2----3---2---|
A|---2-------------3---|
E|---3-----------------|

| /  slide up
| \  slide down
| h  hammer-on
| p  pull-off
| ~  vibrato
| +  harmonic
| x  Mute note
============================================================================
00:00 / 00:00
Otros videos de esta canción
Repetir
Otros videos de esta canción
Compositor no encontrado.
51 vistas
    • ½ Tono
    • A
    • Bb
    • B
    • C
    • Db
    • D
    • Eb
    • E
    • F
    • F#
    • G
    • Ab
  • Agregar a la lista

    0 comentarios

    Ver todos los comentarios

    ¿Lograste tocar?

    0 Tocaron 0 Aún no

    ¡Graba un video tocando Coolie Man y envíanoslo!

    00:00 / 00:00
    OK