Cifra Club

Mellow Mood Solo

Slightly Stoopid

Cifrado: Principal (guitarra y guitarra eléctrica)
tono: C
 MELLOW MOOD SOLO
     MOPTOP
aight. im not compleytley sure on this because i fig. it out of the video on * 
u only get a few glimpeses at the fretboard.

PLEASE RATE OR IF U KNOW HOWS ITS PLAYED TELL ME SO I CAN CHANGE IT

   i brok it dowsn into segments so its easier
     ITS NOT PERFECT TIMING AND ALSO NOT PERFECT ON
           HOW MANY TIEMS EACH THING IS PLAYED
---comes in after G. Love is done singin-----------|
 e|------------------------------------------------|
 b|------------------------------------------------|
 g|-------12------12------12------12------12-------|
 d|--12h14---12h14---12h14---12h14---12h14---------|
 a|------------------------------------------------|
 e|------------------------------------------------|
     then he switches it up like this
 e|-----------------------------------------------------------------|
 b|------------------------------------------121212-12h13p12--------|
 g|--12------12------12------12-------------------------------14--12|
 d|----14p12---14p12---14p12---14p12--------------------------------|
 a|-----------------------------------------------------------------|
 e|-----------------------------------------------------------------|
        then goes right into tis rundown thing *not sure about the ending*
 e|------15p12--------------------------|
 b|------------15p12-----12-------------|
 g|-------------------14-----14--12-----|
 d|-------------------------------------|
 a|-------------------------------------|
 e|-------------------------------------|

 again after the 15p12's on the e and b im get completely
 lost so if u know wats played ther put it inthe comments
00:00 / 00:00
Otros videos de esta canción
Repetir
Otros videos de esta canción
Compositor no encontrado.
51 vistas
    • ½ Tono
    • A
    • Bb
    • B
    • C
    • Db
    • D
    • Eb
    • E
    • F
    • F#
    • G
    • Ab
  • Agregar a la lista

    0 comentarios

    Ver todos los comentarios

    ¿Lograste tocar?

    0 Tocaron 0 Aún no

    ¡Graba un video tocando Mellow Mood Solo y envíanoslo!

    00:00 / 00:00
    OK