Cifra Club

Officer

Slightly Stoopid

Cifrado: Principal (guitarra y guitarra eléctrica)
tono: E
Intro

e--------0h4-(x4)------4h5-(x4)-----5h7-(x4)------ 4h5-(x4)-|
B-----------------------------------------------------------|
G-----------------------------------------------------------|   (x2)
D-----------------------------------------------------------|
A-----------------------------------------------------------|
E-----------------------------------------------------------|

Verse

e-------7---------5---------7-------------------------------|
B-------9---------5---------7-------------------------------|
G-------9---------6---------8-------------------------------|
D-------9---------7---------9-------------------------------|
A-------7---------7---------9-------------------------------|
E-------7---------5---------7-------------------------------|

Listen to the song to figure out the strumming pattern for the verse.  That’s pretty much it.
00:00 / 00:00
Otros videos de esta canción
Repetir
Otros videos de esta canción
Compositor no encontrado.
40 vistas
    • ½ Tono
    • A
    • Bb
    • B
    • C
    • Db
    • D
    • Eb
    • E
    • F
    • F#
    • G
    • Ab
  • Agregar a la lista

    0 comentarios

    Ver todos los comentarios

    ¿Lograste tocar?

    0 Tocaron 0 Aún no

    ¡Graba un video tocando Officer y envíanoslo!

    00:00 / 00:00
    OK