Cifra Club

Wiseman

Slightly Stoopid

Cifrado: Principal (guitarra y guitarra eléctrica)
tono: G
Intro: G  D  Em  C  G  D

Em
Said the man
     C
Who feel him a fool
G              D
For he be the wiseman
Em
For the man
     C
Who don't think he's a fool he
G
Control his destiny
D                          Em
But he's too cool for himself
C
For himself
G            D
For himself
    Em    C
All i need
      G          D               Em
Is something to keep me movin' on

In a world
C                     G
Where violence reigns
                D
And everybody seems so strange to me
Em
Said the man
      C
Who feel him a fool
G               D       Em
For he be the wise man

For the man
         C
Who dont feel him a fool he
G
Control his destiny
D                            Em
Yeah he's too cool for himself
   C
For himself
   G
For himself
D        Em  C  Em  C  D
Oh
E               C
This weapon of destruction
Em               C          D
Swallows peoples suffering
Em        C
And no confusion
Em                       C       D
You aint winnin' if your losin'
              Em
We don't need
Said the man
      C
Who feel him a fool he
G              D
For he be the wiseman
            Em
For the man
          C
Who don't think he's a fool he
G
Control his destiny
D                         Em
But he's too cool for himself
     C
For himself
     G
For himself
D
Oh

Solo final:

E|----------------------------------------------------------|
B|----------------------------------------------------------|
G|----------------------------------------------------------|    2x
D|-----------------------------------------7-7-5-5-4h5p4----|
A|-7-7-------------10-10---------5-5---5-5------------------|
E|-----0-0---7-8-8---------0-3-3----------------------------|

Em C Em

E|--------------------|
B|--------------------|
G|--------------------|
D|--------------------|
A|--------------------|
E|-7h10p7-5-7---------|
Composición de Slightly Stoopid
Colaboración y revisión:
258 vistas
    • ½ Tono
    • A
    • Bb
    • B
    • C
    • Db
    • D
    • Eb
    • E
    • F
    • F#
    • G
    • Ab
  • Agregar a la lista

    0 comentarios

    Ver todos los comentarios

    ¿Lograste tocar?

    0 Tocaron 0 Aún no

    ¡Graba un video tocando Wiseman y envíanoslo!

    00:00 / 00:00
    Otros videos de esta canción
    Repetir Calidad Automático
    Otros videos de esta canción
    00:00 / 00:00
    Automático
    OK