Cifra Club

Psychosocial

Slipknot

Cifrado: Principal (guitarra y guitarra eléctrica)
Selo Cifra Club: esta cifra foi revisada para atender aos critérios oficiais da nossa Equipe de Qualidade.
tono: A
Afinação: A  E  A  D  F#  B

[Intro] 

[Tab Intro - Guitarra 1]

Parte 1 de 5
               H.A                          H.A
E|----------------------------------------------------|
B|----------------------------------------------------|
G|----------------------------------------------------|
D|-------------6~~--------------------------6~~-------|
A|----------------------------------------------------|
E|-0--0--5p0-0------0--3h5-0--0-0-0-0-5p0-0-----------|
   
Parte 2 de 5
                   H.A
E|----------------------------------------------------|
B|----------------------------------------------------|
G|----------------------------------------------------|
D|--------------------6~~-----------------------------|
A|----------------------------------------------------|
E|-0-3h5-----0-5p0-0-----0-3h5-0-0-5-5-5-5-6-6-6-6----|

Parte 3 de 5
E|----------------------------------------------------|
B|----------------------------------------------------|
G|----------------------------------------------------|
D|----------------------------------------------------|
A|----------------------------------------------------|
E|-8-8-8-8-7-7-7-7------------------------------------|

Parte 1 de 5
               H.A                          H.A
E|----------------------------------------------------|
B|----------------------------------------------------|
G|----------------------------------------------------|
D|-------------6~~--------------------------6~~-------|
A|----------------------------------------------------|
E|-0--0--5p0-0------0--3h5-0--0-0-0-0-5p0-0-----------|

Parte 2 de 5
                      H.A
E|----------------------------------------------------|
B|----------------------------------------------------|
G|----------------------------------------------------|
D|--------------------6~~-----------------------------|
A|----------------------------------------------------|
E|-0-3h5-----0-5p0-0-----0-3h5-0-0-5-5-5-5-6-6-6-6----|

Parte 4 de 5
E|----------------------------------------------------|
B|----------------------------------------------------|
G|----------------------------------------------------|
D|----------------------------------------------------|
A|----------------------------------------------------|
E|-8-8-8-8-7-7-7-7-5-5-5-5-6-6-6-6-8-8-8-8-7-7-7-7----|

Parte 5 de 5
E|----------------------------------------------------|
B|----------------------------------------------------|
G|----------------------------------------------------|
D|----------------------------------------------------|
A|----------------------------------------------------|
E|-5-5-5-5-6-6-6-6-8-8-8-8-7-7-7-7-5..-6..-8..-7..-5~-|

[Tab Intro - Guitarra 2]

Parte 1 de 3 
E|----------------------------------------------------|
B|----------------------------------------------------|
G|----------------------------------------------------|
D|----------------------------------------------------|
A|-6-6-6-6-7-7-7-7-9-9-9-9-8-8-8-8-6..-7..-9..-8..-6~-|
E|----------------------------------------------------|

Parte 2 de 3
    P.M.  . .       . .   . .       . .   . .
E|----------------------------------------------------|
B|----------------------------------------------------|
G|----------------------------------------------------|
D|-6-----5-----5h6-6-----5-----5h6-6-----5-----5h6----|
A|-6-----5---0-5h6-6-----5-----5h6-6-----5-----5h6----|
E|-6-0-0-5-0-0-5h6-6-0-0-5-0-0-5h6-6-0-0-5-0-0-5h6----|

Parte 3 de 3
  P.M.. . . . . .
E|----------------------------------------------------|
B|----------------------------------------------------|
G|----------------------------------------------------|
D|----------------------------------------------------|
A|-6-5-3-1-3-5-3-2------------------------------------|
E|-6-5-3-1-3-5-3-2------------------------------------|

[Primeira Parte]

[Tab - Primeira Parte]

      P.M.      . .   . .       . .   . .
E|----------------------------------------------------|
B|----------------------------------------------------|
G|----------------------------------------------------|
D|-6p5-----5h6-6-----5-----5h6-6-----5-----5h6--------|
A|-6p5-----5h6-6-----5-----5h6-6-----5-----5h6--------|
E|-6p5-0-0-5h6-6-0-0-5-0-0-5h6-6-0-0-5-0-0-5h6--------|

  P.M.. . . . . .
E|----------------------------------------------------|
B|----------------------------------------------------|
G|----------------------------------------------------|
D|----------------------------------------------------|
A|-6-5-3-1-3-5-3-2------------------------------------|
E|-6-5-3-1-3-5-3-2------------------------------------|

    P.M.  . .       . .   . .       . .   . .
E|----------------------------------------------------|
B|----------------------------------------------------|
G|----------------------------------------------------|
D|-6-----5-----5h6-6-----5-----5h6-6-----5-----5h6----|
A|-6-----5-----5h6-6-----5-----5h6-6-----5-----5h6----|
E|-6-0-0-5-0-0-5h6-6-0-0-5-0-0-5h6-6-0-0-5-0-0-5h6----|

  P.M.. . . . . .
E|----------------------------------------------------|
B|----------------------------------------------------|
G|----------------------------------------------------|
D|----------------------------------------------------|
A|-6-5-3-1-3-5-3-2------------------------------------|
E|-6-5-3-1-3-5-3-2------------------------------------|

    P.M.  . .       . .   . .       . .   . .
E|----------------------------------------------------|
B|----------------------------------------------------|
G|----------------------------------------------------|
D|-6-----5-----5h6-6-----5-----5h6-6-----5-----5h6----|
A|-6-----5-----5h6-6-----5-----5h6-6-----5-----5h6----|
E|-6-0-0-5-0-0-5h6-6-0-0-5-0-0-5h6-6-0-0-5-0-0-5h6----|

  P.M.. . . . . .
E|----------------------------------------------------|
B|----------------------------------------------------|
G|----------------------------------------------------|
D|----------------------------------------------------|
A|-6-5-3-1-3-5-3-2------------------------------------|
E|-6-5-3-1-3-5-3-2------------------------------------|

    P.M.  . .       . .   . .       . .   . .
E|----------------------------------------------------|
B|----------------------------------------------------|
G|----------------------------------------------------|
D|-6-----5-----5h6-6-----5-----5h6-6-----5-----5h6----|
A|-6-----5-----5h6-6-----5-----5h6-6-----5-----5h6----|
E|-6-0-0-5-0-0-5h6-6-0-0-5-0-0-5h6-6-0-0-5-0-0-5h6----|

  P.M.. . . . . .
E|----------------------------------------------------|
B|----------------------------------------------------|
G|----------------------------------------------------|
D|----------------------------------------------------|
A|-6-5-3-1-3-5-3-2------------------------------------|
E|-6-5-3-1-3-5-3-2------------------------------------|

I did my time, and I want out!

So abusive fate

It doesn't cut, this soul is not so vibrant.

The reckoning, the sickening

Back at you subversion

Pseudo-sacrosanct perversion

Go drill your deserts, go dig your graves!

Then fill your mouth with all the money you will save

Sinking in, getting smaller again

I'm done! It has begun, I'm not the only one!

[Refrão 1]

Ab5          Eb5       Bb5    G5
    And the rain will kill us all
C5              Eb5     Ab5
   If throw ourselves against the wall
     Eb5   Bb5       G5
But no one else can see

The preservation of the martyr in me

[Tab - Interlúdio]

  P.M.    . .   . .       . .   . .       . .   . .
B|---------------------------------------------------|
G|---------------------------------------------------|
D|---------------------------------------------------|
A|---5h6-6-----5-----5h6-6-----5-----5h6-6-----5-----|
E|-0-5h6-6-----5-----5h6-6-----5-----5h6-6-----5-----|
E|-0-5h6-6-0-0-5-0-0-5h6-6-0-0-5-0-0-5h6-6-0-0-5-0-0-|

      P.M.. . . . . .
E|---------------------------------------------------|
B|---------------------------------------------------|
G|---------------------------------------------------|
D|-5h6-----------------------------------------------|
A|-5h6-6-5-3-1-3-5-3-2-------------------------------|
E|-5h6-6-5-3-1-3-5-3-2-------------------------------|

    P.M.  . .       . .   . .       . .   . .
E|---------------------------------------------------|
B|---------------------------------------------------|
G|---------------------------------------------------|
D|-6-----5-----5h6-6-----5-----5h6-6-----5-----5h6---|
A|-6-----5-----5h6-6-----5-----5h6-6-----5-----5h6---|
E|-6-0-0-5-0-0-5h6-6-0-0-5-0-0-5h6-6-0-0-5-0-0-5h6---|

  P.M.. . . . . .
E|---------------------------------------------------|
B|---------------------------------------------------|
G|---------------------------------------------------|
D|---------------------------------------------------|
A|-6-5-3-1-3-5-3-2-----------------------------------|
E|-6-5-3-1-3-5-3-2-----------------------------------|

Psychosocial, Psychosocial, Psychosocial

Psychosocial, Psychosocial, Psychosocial

[Segunda Parte]

[Tab - Segunda Parte]

      P.M.      . .   . .       . .   . .
E|---------------------------------------------------|
B|---------------------------------------------------|
G|---------------------------------------------------|
D|-6p5-----5h6-6-----5-----5h6-6-----5-----5h6-------|
A|-6p5-----5h6-6-----5-----5h6-6-----5-----5h6-------|
E|-6p5-0-0-5h6-6-0-0-5-0-0-5h6-6-0-0-5-0-0-5h6-------|

  P.M.. . . . . .
E|---------------------------------------------------|
B|---------------------------------------------------|
G|---------------------------------------------------|
D|---------------------------------------------------|
A|-6-5-3-1-3-5-3-2-----------------------------------|
E|-6-5-3-1-3-5-3-2-----------------------------------|

    P.M.  . .       . .   . .       . .   . .
E|---------------------------------------------------|
B|---------------------------------------------------|
G|---------------------------------------------------|
D|-6-----5-----5h6-6-----5-----5h6-6-----5-----5h6---|
A|-6-----5-----5h6-6-----5-----5h6-6-----5-----5h6---|
E|-6-0-0-5-0-0-5h6-6-0-0-5-0-0-5h6-6-0-0-5-0-0-5h6---|

  P.M.. . . . . .
E|---------------------------------------------------|
B|---------------------------------------------------|
G|---------------------------------------------------|
D|---------------------------------------------------|
A|-6-5-3-1-3-5-3-2-----------------------------------|
E|-6-5-3-1-3-5-3-2-----------------------------------|

    P.M.  . .       . .   . .       . .   . .
E|---------------------------------------------------|
B|---------------------------------------------------|
G|---------------------------------------------------|
D|-6-----5-----5h6-6-----5-----5h6-6-----5-----5h6---|
A|-6-----5-----5h6-6-----5-----5h6-6-----5-----5h6---|
E|-6-0-0-5-0-0-5h6-6-0-0-5-0-0-5h6-6-0-0-5-0-0-5h6---|

  P.M.. . . . . .
E|---------------------------------------------------|
B|---------------------------------------------------|
G|---------------------------------------------------|
D|---------------------------------------------------|
A|-6-5-3-1-3-5-3-2-----------------------------------|
E|-6-5-3-1-3-5-3-2-----------------------------------|

    P.M.  . .       . .   . .       . .   . .
E|---------------------------------------------------|
B|---------------------------------------------------|
G|---------------------------------------------------|
D|-6-----5-----5h6-6-----5-----5h6-6-----5-----5h6---|
A|-6-----5-----5h6-6-----5-----5h6-6-----5-----5h6---|
E|-6-0-0-5-0-0-5h6-6-0-0-5-0-0-5h6-6-0-0-5-0-0-5h6---|

  P.M.. . . . . .
E|---------------------------------------------------|
B|---------------------------------------------------|
G|---------------------------------------------------|
D|---------------------------------------------------|
A|-6-5-3-1-3-5-3-2-----------------------------------|
E|-6-5-3-1-3-5-3-2-----------------------------------|

Go! There are cracks in the road we laid

But we're the temple fell, the secret death's gone mad

This is nothing new, but when we kill it all?

The hate was all we had!

Who needs another mess, we could start over

Just look me in the eyes and say I'm wrong!

Now there's only emptiness, burn elicit self threat

I think we're done, I'm not the only one!

[Refrão 2]

Ab5          Eb5       Bb5    G5
    And the rain will kill us all
C5              Eb5     Ab5
   If throw ourselves against the wall
     Eb5   Bb5       G5
But no one else can see

The preservation of the martyr in me

[Solo]

[Tab - Solo]

Parte 1 de 14
E|---------------------------------------------------|
B|---------------------------------------------------|
G|---------------7-----------------------------------|
D|--------7h8h10---10-8-7-------------7h8h10-7h8h10--|
A|-6h8h10-----------------10-8-6h8h10----------------|
E|---------------------------------------------------|

Parte 2 de 14
E|---------------------------------------------------|
B|--------------------8------------------------------|
G|-------------7h8h10---10-8-7-------------7h8h10----|
D|-10-8-7h8h10-----------------10-8-7h8h10-----------|
A|---------------------------------------------------|
E|---------------------------------------------------|

Parte 3 de 14
E|----------------------------8----------------------|
B|-------8-------------8h9h11---11-9-8---------------|
G|-7h810---10-8-7h8h10-----------------10-8-7h8h10---|
D|---------------------------------------------------|
A|---------------------------------------------------|
E|---------------------------------------------------|

Parte 4 de 14
E|---------------8-------------8h10h11---------------|
B|-8h9h11-8h9h11---11-9-8h9h11---------9h11h13-------|
G|---------------------------------------------------|
D|---------------------------------------------------|
A|---------------------------------------------------|
E|---------------------------------------------------|

Parte 5 de 14
E|-10h11h13-13-11-10---------13-11-10---------10~~---|
B|-------------------13-11-9----------13-11-9--------|
G|---------------------------------------------------|
D|---------------------------------------------------|
A|---------------------------------------------------|
E|---------------------------------------------------|

Parte 6 de 14
E|-10h11p10p8-10~~--10h11p10p8-11/15--11--10--8--10~-|
B|---------------------------------------------------|
G|---------------------------------------------------|
D|---------------------------------------------------|
A|---------------------------------------------------|
E|---------------------------------------------------|

Parte 7 de 14
E|-10b11r10------------------------------------------|
B|-------------8~-8b9r8------------------------------|
G|-------------------------7~-7b8r7--8--7h8p7--------|
D|--------------------------------------------10--8--|
A|---------------------------------------------------|
E|---------------------------------------------------|

Parte 8 de 14
E|-10--11h13--11--10--11--10-----10--11/15-11--10--11|
B|----------------------------11---------------------|
G|---------------------------------------------------|
D|---------------------------------------------------|
A|---------------------------------------------------|
E|---------------------------------------------------|

Parte 9 de 14
E|-10h11p10-8--10--11--10~~--------------------------|
B|---------------------------------------------------|
G|----------------------------\8----7~~-8b10r8~-7b8~-|
D|-------------------------------10------------------|
A|---------------------------------------------------|
E|---------------------------------------------------|

Parte 10 de 14
E|---------------------------------------------------|
B|---------------------------------------------------|
G|---------------------------------------------------|
D|------------10----------------10h12h13-10h12h13----|
A|-8h10h11/13----13-11-10h11h13----------------------|
E|---------------------------------------------------|

Parte 11 de 14
E|---------------------------------------------------|
B|---------------------------------------------------|
G|-10----------------10h12h13-10h12h13-12h13p12p10---|
D|----13-12-10h12h13---------------------------------|
A|---------------------------------------------------|
E|---------------------------------------------------|

Parte 12 de 14
E|---------------------------------------------------|
B|---------------------------------------------------|
G|---------------------------------------------------|
D|-13-12-12h13p12p10---------------------------------|
A|-------------------13-11-11h13p11p10\8-11-10-------|
E|---------------------------------------------------|

Parte 13 de 14
E|---------------------------------------------------|
B|---------------------------------------------------|
G|---------------------------------------------------|
D|---------------------------------------------------|
A|-10h11p10p8\6-10-8-8h10p8p6~-----------------------|
E|---------------------------------------------------|

Parte 14 de 14
E|---------------------------------------------------|
B|---------------------------------------------------|
G|-/12~~-8--8--7h8p7-----8--7h8p7--------------------|
D|-------------------10-----------7--8--7------------|
A|-----------------------------------------8--6--3h5-|
E|---------------------------------------------------|

[Ponte]

The limits of the dead! 

The limits of the dead! 

The limits of the dead! 

The limits of the dead! 

[Tab Ponte - Guitarra 1]

  P.M.   . .    . .   . . . .    . . . .
E|---------------------------------------------------|
B|---------------------------------------------------|
G|---------------------------------------------------| (11x)
D|---------------------------------------------------|
A|---------------------------------------------------|
E|-0-0----0-0----0-0---0-0-0-0----0-0-0-0------------|

  P.M.   . .    . .   . . . .
E|---------------------------------------------------|
B|---------------------------------------------------|
G|---------------------------------------------------|
D|---------------------------------------------------|
A|---------------------------------------------------|
E|-0-0----0-0----0-0---0-0-0-0-----------------------|

[Tab Ponte - Guitarra 2]

  P.M.   .  .  . . . .  . . .
E|---------------------------------------------------|
B|---------------------------------------------------|
G|---------------------------------------------------| (3x)
D|---------------------------------------------------|
A|---------------------------------------------------|
E|-0-4b6--0--0--0-0-0-0--0-0-0-2b3r2-----------------|

  P.M.    .  .  . . . .
E|---------------------------------------------------|
B|---------------------------------------------------|
G|---------------------------------------------------|
D|---------------------------------------------------|
A|---------------------------------------------------|
E|-0--4b6--0--0--0-0-0-0-----------------------------|

[Terceira Parte]

[Tab - Terceira Parte]

  P.M..   . .   . .       . .   . .       . .   . .
B|---------------------------------------------------|
G|---------------------------------------------------|
D|---------------------------------------------------|
A|-------6-----5-----5h6-6-----5-----5h6-6-----5-----|
E|-0-5-0-6-----5-----5h6-6-----5-----5h6-6-----5-----|
E|-0-5-0-6-0-0-5-0-0-5h6-6-0-0-5-0-0-5h6-6-0-0-5-0-0-|

      P.M.. . . . . .
E|---------------------------------------------------|
B|---------------------------------------------------|
G|---------------------------------------------------|
D|-5h6-----------------------------------------------|
A|-5h6-6-5-3-1-3-5-3-2-------------------------------|
E|-5h6-6-5-3-1-3-5-3-2-------------------------------|

    P.M.  . .       . .   . .       . .   . .
E|---------------------------------------------------|
B|---------------------------------------------------|
G|---------------------------------------------------|
D|-6-----5-----5h6-6-----5-----5h6-6-----5-----5h6---|
A|-6-----5-----5h6-6-----5-----5h6-6-----5-----5h6---|
E|-6-0-0-5-0-0-5h6-6-0-0-5-0-0-5h6-6-0-0-5-0-0-5h6---|

  P.M.. . . . . .
E|---------------------------------------------------|
B|---------------------------------------------------|
G|---------------------------------------------------|
D|---------------------------------------------------|
A|-6-5-3-1-3-5-3-2-----------------------------------|
E|-6-5-3-1-3-5-3-2-----------------------------------|

Fate! Cannot catch this lie, (Psychosocial)

I tried to tell you but, (Psychosocial)

Your purple hearts are giving out. (Psychosocial)

Can't stop the killing idea. (Psychosocial)

If it's hunting season. (Psychosocial)

Is this what you want? (Psychosocial)

I'm not the only one!

[Refrão 2]

Ab5          Eb5       Bb5    G5
    And the rain will kill us all
C5              Eb5     Ab5
   If throw ourselves against the wall
     Eb5   Bb5       G5
But no one else can see

The preservation of the martyr in me

[Final]

[Tab Final - Guitarra 1]

  P.M.. . . . . . . . . . . . . .
E|---------------------------------------------------|
B|---------------------------------------------------|
G|---------------------------------------------------|
D|-0-0-7-7-0-0-0-0-5-5-8-8-4-4-7-7-------------------|
A|---------------------------------------------------|
E|---------------------------------------------------|

  P.M.. . . . . . . . . . H.A
E|---------------------------------------------------|
B|---------------------------------------------------|
G|---------------------------------------------------|
D|-0-0-7-7-0-0-0-0-5-5-8-8-5~~-----------------------|
A|---------------------------------------------------|
E|---------------------------------------------------|

[Tab Final - Guitarra 2]

  P.M.. . . . . . . . .  .  . . . .
E|---------------------------------------------------|
B|---------------------------------------------------|
G|---------------------------------------------------|
D|---------------------------------------------------|
A|-----8-8-5-5-5-5-6-6-10-10-5-5-8-8-----------------|
E|-0-0-----------------------------------------------|

  P.M.. . . . . . . . .  .  H.A
E|---------------------------------------------------|
B|---------------------------------------------------|
G|---------------------------------------------------|
D|---------------------------------------------------|
A|-----8-8-5-5-5-5-6-6-10-10-5~~---------------------|
E|-0-0-----------------------------------------------|

  P.M. . .  . .  . .  . . . .  . . .
E|---------------------------------------------------|
B|---------------------------------------------------|
G|---------------------------------------------------| (3x)
D|---------------------------------------------------|
A|---------------------------------------------------|
E|-0-0--0-0--0-0--0-0--0-0-0-0--0-0-0-2b3r2----------|

  P.M. . .  . .  . .  . . . .
E|---------------------------------------------------|
B|---------------------------------------------------|
G|---------------------------------------------------|
D|---------------------------------------------------|
A|---------------------------------------------------|
E|-0-0--0-0--0-0--0-0--0-0-0-0-----------------------|

The limits of the dead! 

The limits of the dead!
Otros videos de esta canción
    499.839 exhibiciones
      • ½ Tono
      • A
      • Bb
      • B
      • C
      • Db
      • D
      • Eb
      • E
      • F
      • F#
      • G
      • Ab
    • Agregar a la lista

    Afinación de cifrado

    Afinador online

      Capítulos
      • Início
      • Afinação
      • Tocando a música
      • Configuração do Efeito
      • Acordes da Introdução
      • Tocando Introdução
      • Ensinando Introdução - Parte 1
      • Ensinando Introdução - Parte 2
      • Tocando Primeira Parte
      • Ensinando Primeira Parte
      • Acordes do Refrão
      • Tocando Refrão
      • Ensinando Ritmo do Refrão
      • Tocando Passagem
      • Ensinando Passagem
      • Tocando Segunda Parte e Solo
      • Ensinando Solo - Primeira Parte
      • Ensinando Solo - Segunda Parte
      • Ensinando Solo - Terceira Parte
      • Tocando Ponte
      • Ensinando Ponte
      • Tocando Terceira Parte
      • Ensinando Terceira Parte
      • Tocando Interlúdio e Final
      • Ensinando Interlúdio - Guitarra 1
      • Ensinando Interlúdio - Guitarra 2
      • Ensinando Final
      • Encerramento
      OK