Cifra Club

Breed

Snake River Conspiracy

Tab de bajo: Principal
Album: Sonic Jihad (2000)
Tabbed By: Bomb-Ass Punani (*)
Tuning: Standard

   Main Riff  24x (not a typo)
G |--------------|
D |*------------*|
A |*-3--0--1----*|
E |-----------0--|

   Interlude  4x
G |--------------------------------|
D |*------------------------------*|
A |*-3-0---3-0------1-0---1-------*|
E |------3-----3--3-----2---0-2--2-|

Main Riff 10x

Interlude  4x

  Transfer 4x
G|------------|
D|------------|
A|------------|
E|--2-2-------|

Main Riff 13 x
Interlude 8  x
00:00 / 00:00
Otros videos de esta canción
Repetir
Otros videos de esta canción
Composición de Denny Porter / Eric Valentine / Jason Slater / Jerry Goldsmith
20 exhibiciones
00:00 / 00:00
OK