Cifra Club

Essa Tal Liberdade

Só Pra Contrariar

Cifrado: Principal (guitarra y guitarra eléctrica)
tono: E
[Intro] E  G#m7  A  A/B
        E  G#m7  A  A/B

E|------------------------------------------------|
B|-----------------9-10-9-------------------------|
G|---------4/6--9--9------9--4/6\4----------------|
D|-6-7-7/9----------------------------------------|
A|------------------------------------------------|
E|------------------------------------------------|
          
E|------------------------------------------------|
B|-----------------9-10-9-------------------------|
G|---------4/6--9--9------9--9/11\9---------------|
D|-6-7-7/9----------------------------------------|
A|------------------------------------------------|
E|------------------------------------------------|

[Primeira Parte]

E                     G#m7    
O que é que eu vou fazer com
               A
Essa tal liberdade
                 B7  
Se estou na solidão
               E
Pensando em você
               G#m7   
Eu nunca imaginei
                 A
Sentir tanta saudade

Meu coração não
 B7                   
Sabe como te esquecer

[Pré-Refrão]

E             G#m7    
  Eu andei errado, eu
          A
Pisei na bola

Troquei quem mais
  B7                 E
Amava por uma ilusão
               G#m7 
Mas a gente aprende
                A
A vida é uma escola
                  B7                    
Não é assim que acaba
               E
Uma grande paixão

[Refrão]

              G#m7            A
Quero te abraçar quero te beijar
 A/B               E
Te desejo noite e dia
              G#m7          A
Quero me prender todo em você
   A/B                   E
Você é tudo o que eu queria

              G#m7            A
Quero te abraçar quero te beijar
 A/B               E
Te desejo noite e dia
              G#m7          A
Quero me prender todo em você
   A/B                   E
Você é tudo o que eu queria

[Segunda Parte]

                      G#m7  
O que é que eu vou fazer
                 A
Com esse fim de tarde

Pra onde quer que eu
B7                   E
Olhe lembro de você
                  G#m7 
Não sei se fico aqui
              A
Ou mudo de cidade
                B7  
Sinceramente, amor
                 
Não sei o que fazer

[Pré-Refrão]

E             G#m7    
  Eu andei errado, eu
          A
Pisei na bola
                  B7 
Achei que era melhor
                 E
Cantar outra canção
               G#m7  
Mas a gente aprende
                A
A vida é uma escola
                 B7 
Eu troco a liberdade
              E
Pelo teu perdão

[Refrão]

              G#m7            A
Quero te abraçar quero te beijar
 A/B               E
Te desejo noite e dia
              G#m7          A
Quero me prender todo em você
   A/B                   E
Você é tudo o que eu queria

              G#m7            A
Quero te abraçar quero te beijar
 A/B               E
Te desejo noite e dia
              G#m7          A
Quero me prender todo em você
   A/B                   E
Você é tudo o que eu queria

[Solo] E  G#m7  A  A/B
        E  G#m7  A  A/B


E|------------------------------------------------|
B|-----------------9-10-9-------------------------|
G|---------4/6--9--9------9--4/6\4----------------|
D|-6-7-7/9----------------------------------------|
A|------------------------------------------------|
E|------------------------------------------------|
          
E|------------------------------------------------|
B|-----------------9-10-9-------------------------|
G|---------4/6--9--9------9--9/11\9---------------|
D|-6-7-7/9----------------------------------------|
A|------------------------------------------------|
E|------------------------------------------------|

[Primeira Parte]

E                     G#m7    
O que é que eu vou fazer com
               A
Essa tal liberdade
                 B7  
Se estou na solidão
               E
Pensando em você
               G#m7   
Eu nunca imaginei
                 A
Sentir tanta saudade

Meu coração não
 B7                   
Sabe como te esquecer

[Pré-Refrão]

E             G#m7    
  Eu andei errado, eu
          A
Pisei na bola

Troquei quem mais
  B7                 E
Amava por uma ilusão
               G#m7 
Mas a gente aprende
                A
A vida é uma escola
                  B7                    
Não é assim que acaba
               E
Uma grande paixão

[Refrão]

              G#m7            A
Quero te abraçar quero te beijar
 A/B               E
Te desejo noite e dia
              G#m7          A
Quero me prender todo em você
   A/B                   E
Você é tudo o que eu queria

              G#m7            A
Quero te abraçar quero te beijar
 A/B               E
Te desejo noite e dia
              G#m7          A
Quero me prender todo em você
   A/B                   E
Você é tudo o que eu queria

              G#m7            A
Quero te abraçar quero te beijar
 A/B               E
Te desejo noite e dia
              G#m7          A
Quero me prender todo em você
   A/B                   E
Você é tudo o que eu queria

              G#m7            A
Quero te abraçar quero te beijar
 A/B               E
Te desejo noite e dia
              G#m7          A
Quero me prender todo em você
   A/B                   E
Você é tudo o que eu queria
Composición de Chico Roque / Paulo Segio Valle / Paulo Sérgio Valle
8.956 vistas
    • ½ Tono
    • A
    • Bb
    • B
    • C
    • Db
    • D
    • Eb
    • E
    • F
    • F#
    • G
    • Ab
  • Agregar a la lista

    0 comentarios

    Ver todos los comentarios

    ¿Lograste tocar?

    59 Tocaron 16 Aún no

    ¡Graba un video tocando Essa Tal Liberdade y envíanoslo!

    00:00 / 00:00
    Otros videos de esta canción
    Repetir Calidad Automático
    Otros videos de esta canción
    00:00 / 00:00
    Automático
    OK