Cifra Club

Abstinencia

Sober

Cifrado: Principal (guitarra y guitarra eléctrica)
tono: Em
E|E|E|----------------------|E|----------------------|----------------||

AFINACION

Dropped D: afina la sexta cuerda de tu guitarra dos semito-
nos menos (de E a D) y las cinco cuerdas restantes déjalas
en afinación standar

E|E|E|----------------------|E|----------------------|----------------||


INTRO

1)

[Esto lo hace el bajo]

E|E|----------------------|E|----------------------|--|
B|E|----------------------|E|----------------------|--|
G|E|----------------------|E|----------------------|--|
D|------------------8-8E|----------------------|---|
A|------------0-3s8-----------------0-5--0-3-3--|
E|--1-0--1-0--------------1-0--1-0--------------|

2)

E|---------------------(12)--|
B|E|----------------------|-----|
G|E|----------------------|-----|
D|--1--0-0--1--0--(7)--------|
A|--1--0-0--1--0-------------|
E|--1--0-0--1--0-------------|


VERSO

1) (Abre tus manos, relajate,...)

E|----------------|
B|----------------|
G|----------------|
D|--1--0--1--0-0--|
A|--1--0--1--0-0--|
E|--1--0--1--0-0--|
  PM..........


Tocar lo mismo que en Intro 2


PD-C HORUS

Guitarra 1

--7-----7-----7-----7-----7-----7-----7----7----7-----7-----
----7-----7-----7-----7-----7-----7-----7----7----7-----7---
------4-----4-----4-----4-----------0----0-----0----0-------
E|E|E|----------------------|E|----------------------|----------------||
E|E|E|----------------------|E|----------------------|----------------||
E|E|E|----------------------|E|----------------------|----------------||

Guitarra 2

E|E|----------------------|---------------------|
B|E|----------------------|---------------------|
G|E|----------------------|---------------------|
D|E|----------------------|---------------------|
A|--9-9--9-9--9-9--9--0--5-5--5-5--5-5--5-5--|
E|--9-9--9-9--9-9--9--0--5-5--5-5--5-5--5-5--|
  PM.....................................

2)

E|E|E|----------------------|E|----------------------|----------------||
E|E|E|----------------------|E|----------------------|----------------||
--7-7-7-7-7-7--9-9-9-9-9-9-9--9s12--12-12-12-12--11--11-11--
E|E|E|----------------------|E|----------------------|----------------||
--5-5-5-5-5-5--7-7-7-7-7-7-7--7s10--10-10-10-10---9---9--9--
--0-0-0-0-0-0--0-0-0-0-0-0-0--0------0--0--0--0---0---0--0--

E|-----------------|
B|-----------------|
G|-11-11-----------|
D|-----------------|
A|--9--0-----------|
E|--0--0-----------|


CHORUS (Córtame las cuerdas que yo até...)

1)

Guitarra 1

--7>----3>--
--7>----3>--
--7>----4>--
--9>----5>--
E|------------|
B|------------|

Guitarra 2

-------------------E|------------|
B|------------|-------E|------------|
B|------------|-------------------
--9-9--9-9--9--0--5-5--5-5--5--
--9-9--9-9--9--0--5-5--5-5--5--
--9-9--9-9--9--0--5-5--5-5--5--

2)

Tocar lo mismo que en Pre-chorus 2


POST-CHORUS

1)

Guitarra 1

[Con efectos]

E|E|E|----------------------|E|----------------------|----------------||
E|E|E|----------------------|E|----------------------|----------------||
--7s11>-s10-10>--11p10--7>---7-7*--7s11--11>--14s7s10--10>--
E|----------------------|--7>E|----------------------|------------
E|E|E|----------------------|E|----------------------|----------------||
E|E|E|----------------------|E|----------------------|----------------||

---------E|------------|
B|------------|---------
-s7s10--10>--14s13>--
-------------14s13>--
---------E|------------|
B|------------|---------

Guitarra 2

E|----------------------|---E|------------|
B|------------|-------------E|------------|
B|------------|-------------E|------------|
B|------------|E|----------------------|---
--0--12--0-0--12--0--12--0-0-0--13>--
--0--12--0-0--12--0--12--0-0-0--13>--
  PM..........................

2)

Guitarra 1

E|----------------------|
--3>--5--6>--8s3--3>--
--2>--4--5>--7s2--2>--
----------E|------------|
B|------------|----------
E|----------------------|

Guitarra 2

E|----------------|
B|----------------|
G|----------------|
D|--1--0--1--0-0--|
A|--1--0--1--0-0--|
E|--1--0--1--0-0--|

3)

Guitarra 1

E|----------------------|E|----------------------|---------
--7>--8s10--10s11>--10--8--8s10>--8>--8h10p8--7>-s?--
E|----------------------|-------------------E|------------|
B|------------|E|----------------------|-------E|------------|
B|------------|E|----------------------|-------E|------------|
B|------------|E|----------------------|-------------------

Guitarra 2

------------E|------------|
B|------------|E|------------|
B|------------|------------
--1--0-0--1--0-0--1--0--
--1--0-0--1--0-0--1--0--
--1--0-0--1--0-0--1--0--
00:00 / 00:00
Otros videos de esta canción
Repetir
Otros videos de esta canción
Composición de Sôber
2 vistas
    • ½ Tono
    • Am
    • Bbm
    • Bm
    • Cm
    • C#m
    • Dm
    • Ebm
    • Em
    • Fm
    • F#m
    • Gm
    • G#m
  • Agregar a la lista

    0 comentarios

    Ver todos los comentarios

    ¿Lograste tocar?

    0 Tocaron 0 Aún no

    ¡Graba un video tocando Abstinencia y envíanoslo!

    00:00 / 00:00
    OK