Cifra Club

Caída Libre

Sober

Cifrado: Principal (guitarra y guitarra eléctrica)
tono: Em
E|E|------------------------------------------------------------||

AFINACION

Dropped D: afina la sexta cuerda de tu guitarra dos semito-
nos menos (de E a D) y las cinco cuerdas restantes déjalas
en afinación standar

E|E|------------------------------------------------------------||


INTRO
                                                    xxxxxxx
E|----------------------------------------------------| ¡-------
B|----------------------------------------------------| ¡-------
G|----------------------------------------------------| ¡-------
D|--2s3--2--0--2--2s3--2s3--2s3--2--0--2--2s3--2s3--0-| ¡-0--0--
A|--2s3--2--0--2--2s3--2s3--2s3--2--0--2--2s3--2s3--0-| ¡-0--0--
E|--2s3--2--0--2--2s3--2s3--2s3--2--0--2--2s3--2s3--0-| ¡-0--0--
                                                      PM..
xxx
---¡-
---¡-
---¡-
-0-¡-
-0-¡-
-0-¡-
..

La segunda vez que toques este riff en vez de tocar lo que
pone en la zona marcada con 'x' toca esto:

E|--0----|
B|----0--|
G|-------|
D|-------|
A|-------|
E|-------|

Y la cuarta vez que toca esto:

E|-------------------0----|
B|---------------------0--|
G|------------------------|
--2>----2h3-3-----------
--2>----------2---------
--2>------------2-------


VERSO

1) (No consigo entender el porqué...)

[Esto lo hace el bajo]
E|-----------------------------------|
B|-----------------------------------|
G|-----------------------------------|
D|-----------------------------------|
A|-----------5-5-5-------------------|
E|--2--5--3---------3--2--5--3--0-0--|

En un momento dado una guitarra rasguea hacia abajo un
acorde E(022100)


2) (...ganas de saltar)

                 xxxxxxxxxxxxxxxxxxxxxx
E|----------------| ¡----------------------¡--
B|----------------| ¡----------------------¡--
G|----------------| ¡----------------------¡--
D|----------------| ¡----------------------¡--
A|--2-2-2--5-5--3-| ¡-12-12-12-12-12-12-12-¡--
E|--2-2-2--5-5--3-| ¡-12-12-12-12-12-12-12-¡--
  PM..................................

La segunda vez que toques este riff en vez de tocar lo que
pone en la zona marcada con 'x' toca esto

E|-----------------|
B|-----------------|
G|-----------------|
D|-----------------|
A|--0-0-0-0-0-0-0--|
E|--0-0-0-0-0-0-0--|
  PM...........


CHORUS (Caída libre, salta...)

E|-------------------------------------------|
B|-------------------------------------------|
G|-------------------------------------------|
D|-------------------------------------------|
A|--2--5--3---2--5--3--12-12-12-12-12-12-12--|
E|--2--5--3---2--5--3--12-12-12-12-12-12-12--|


POST-CHORUS

1)

Tocar lo mismo que en Intro

2)

Guitarra 1

E|-----------------------|
B|-----------------------|
G|-----------------------|
D|-----------------------|
A|--6-6-6-6--6-6-6-6--7--|
E|--6-6-6-6--6-6-6-6--7--|

Guitarra 2 [Con wah-wah]

E|----------------|
B|--9----9----10--|
G|----8----8--9---|
D|----------------|
A|----------------|
E|----------------|

3)

Guitarra 1

E|-----------------------------------------------------|
B|-----------------------------------------------------|
G|-----------------------------------------------------|
D|-----------------------------------------------------|
A|--2-3--2-3--2-3--2-3-2-3-2-3--2-3--2-3--2-3--2-3--0--|
E|--2-3--2-3--2-3--2-3-2-3-2-3--2-3--2-3--2-3--2-3--0--|

Guitarra 2 [Con efectos]

E|--------------------------------------------------------|
B|--------------------------------------------------------|
G|--13h14--13h14--13h14--13h14p13h14p13h14--13h14--13h14--|
D|--------------------------------------------------------|
A|--------------------------------------------------------|
E|--------------------------------------------------------|

E|------------------|
B|------------------|
G|-13h14--13h14--13-|
D|------------------|
A|------------------|
E|------------------|
00:00 / 00:00
Otros videos de esta canción
Repetir
Otros videos de esta canción
Composición de Sôber
    • ½ Tono
    • Am
    • Bbm
    • Bm
    • Cm
    • C#m
    • Dm
    • Ebm
    • Em
    • Fm
    • F#m
    • Gm
    • G#m
  • Agregar a la lista

    0 comentarios

    Ver todos los comentarios

    ¿Lograste tocar?

    0 Tocaron 0 Aún no

    ¡Graba un video tocando Caída Libre y envíanoslo!

    00:00 / 00:00
    OK