Cifra Club

Cubos

Sober

Cifrado: Principal (guitarra y guitarra eléctrica)
tono: Bb
E|E|------------------------------------------------------------||

AFINACION

Dropped D: afina la sexta cuerda de tu guitarra dos semito-
nos menos (de E a D) y las cinco cuerdas restantes déjalas
en afinación standar

E|E|------------------------------------------------------------||


INTRO

E|--------------------------------------|
B|--------------------------------------|
G|--------------------------------------|
D|--3--1--0--0-----------3--1--0--0--0--|
A|--3--1--0--0--x-x-x-x--3--1--0--0--0--|
E|--3--1--0--0--x-x-x-x--3--1--0--0--0--|

En un momento dado una segunda guitarra hace esto:

E|---------|
B|--3------|
G|----2----|
D|------0--|
A|---------|
E|---------|


VERSO (Sencillo no lo es...)

Guitarra 1

E|--------------------------------------|
B|--------------------------------------|
G|--------------------------------------|
D|--3--1--0--0-----------3--1--0--0--0--|
A|--3--1--0--0--0-0-0-0--3--1--0--0--0--|
E|--3--1--0--0--0-0-0-0--3--1--0--0--0--|
  PM................................

Guitarra 2

E|---------------|
B|---------------|
G|---------14b| >--
D|--0b| >----------
A|---------------|
E|---------------|


CHORUS (Miro profundo a la pared...)

E|---------------|
B|---------------|
G|--7---10--14---|
D|--5---8---12---|
A|--5---8---12---|
E|--5*--8*--12*--|

POST-CHORUS (Pensamientos se agolpan...)

E|------------|
B|------------|
G|------------|
D|--1--3--0| >--
A|--1--3--0| >--
E|--1--3--0| >--


G  O

Guitarra 1

E|----------------------------------------------------------|
B|----------------------------------------------------------|
G|--19b--19b| >--19b--19b>------------------------------------
D|----------------------------19----20---------19----20-----|
A|-------------------------17----17-----17--17----17----17--|
E|----------------------------------------------------------|

              (x?)
-¡----------------¡-
-¡----------------¡-
-¡-19h20p19h20p19-¡-
-¡----------------¡-
-¡----------------¡-
-¡----------------¡-
00:00 / 00:00
Otros videos de esta canción
Repetir
Otros videos de esta canción
Composición de Sôber
    • ½ Tono
    • A
    • Bb
    • B
    • C
    • Db
    • D
    • Eb
    • E
    • F
    • F#
    • G
    • Ab
  • Agregar a la lista

    0 comentarios

    Ver todos los comentarios

    ¿Lograste tocar?

    0 Tocaron 0 Aún no

    ¡Graba un video tocando Cubos y envíanoslo!

    00:00 / 00:00
    OK