Cifra Club

La Prisión Del Placer

Sober

Cifrado: Principal (guitarra y guitarra eléctrica)
tono: D
E|E|------------------------------------------------------------||

AFINACION

Dropped D: afina la sexta cuerda de tu guitarra dos semito-
nos menos (de E a D) y las cinco cuerdas restantes déjalas
en afinación standar

E|E|------------------------------------------------------------||


INTRO

1)

Guitarra 1

[Con delay]

E|-------------------------------------|
B|-----15---------15-15---------15-15--|
G|--14-----14-14---------14-14---------|
D|-------------------------------------|
A|-------------------------------------|
E|-------------------------------------|
  PM...............................

Guitarra 2

E|------------------------------|
B|---------15-15---------15-15--|
G|--14-14---------14-14---------|
D|------------------------------|
A|------------------------------|
E|------------------------------|

2)

Guitarra 1

E|-----------------------------------|
B|-----------------------------------|
G|--11-11-11-------------------------|
D|--9--9--9---0-0-0-0--7-7--7-7--7| >--
A|--9--9--9---0-0-0-0--7-7--7-7--7| >--
E|--9--9--9---0-0-0-0--7-7--7-7--7| >--

Guitarra 2

E|-----------------------------------------------------|
B|---------------7h8p7--10-10-10--10--10-10-10--10-10--|
G|--11-11-11------------9---9--9---9---9--9--9---9--9--|
D|--9--9--9---0---------7---7--7---7---7--7--7---7--7--|
A|--9--9--9---0----------------------------------------|
E|--9--9--9---0----------------------------------------|


VERSO

1) (El salvador de los sueños...)

Guitarra 1: tocar lo mismo que la Guitarra 1 en Intro 1

Guitarra 2

E|---------------------------------------------|
B|---------------------------------------------|
G|---------------------------------------------|
D|---------------------------------------------|
A|--9-9-9--0-0-0-0--0-0-7-7-7--7-7-7-7-7--0-0--|
E|--9-9-9--0-0-0-0--0-0-7-7-7--7-7-7-7-7--0-0--|
  PM.......................................

2) (Una vez me obligué...)

Ambas guitarras tocan lo mismo que en Intro 2


PD-C HORUS (Y ahora que no sé si aquel hombre...)

Guitarra 1

     (x3)
E|----------0-| ¡---------------------
B|------------| ¡---------------------
G|------------| ¡---------------------
--2>--3>----¡-5-5--5-5--5-5--5-5--
--2>--3>----¡-5-5--5-5--5-5--5-5--
--2>--3>----¡-5-5--5-5--5-5--5-5--
              PM................

Guitarra 2
                     (x?)
E|--------0-| ¡-------------¡--
B|----------| ¡-12h13p12h13-¡--
G|-----0----| ¡-------------¡--
D|--2-------| ¡-------------¡--
A|----------| ¡-------------¡--
E|----------| ¡-------------¡--


CHORUS (Piensan que nos vimos...)

                                         xxxxxxxxxxxxx
E|----------------------------------------| ¡-------------¡--
B|----------------------------------------| ¡-------------¡--
G|----------------------------------------| ¡-------------¡--
D|--0--0--7h8--0--10-10-10-10--12--2| >--3>-¡-3-3--3--3-3-¡--
A|--0--0--7h8--0--10-10-10-10--12--2| >--3>-¡-3-3--3--3-3-¡--
E|--0--0--7h8--0--10-10-10-10--12--2| >--3>-¡-3-3--3--3-3-¡--
                                          PM.........

Una segunda guitarra en vez de tocar lo que pone en la
zona marcada con 'x' toca esto:

E|--x-x--x--x-x--|
B|--x-x--x--x-x--|
G|--x-x--x--x-x--|
D|--x-x--x--x-x--|
A|--x-x--x--x-x--|
E|--x-x--x--x-x--|

Y la última vez que toques este riff en vez de tocar lo que
pone en la zona marcada con 'x' toca esto:

E|--------|
B|--------|
G|--------|
D|--3--0--|
A|--3--0--|
E|--3--0--|

2)

E|------------|
B|------------|
G|--9-9--9-9--|
D|--7-7--7-7--|
A|--7-7--7-7--|
E|--7-7--7-7--|

3)

Guitarra 1

E|------------|
B|------------|
G|--7--9-9-9--|
D|--5--7-7-7--|
A|--5--7-7-7--|
E|--5--7-7-7--|


Guitarra 2

xxxxxxxxxxxx
E|------------|
B|------------|
G|------------|
D|------------|
A|------------|


FINAL

Guitarra 1

E|------------------------|
B|------------------------|
G|--7--9-9--7--9-9--7--9--|
D|--5--7-7--5--7-7--5--7--|
A|------------------------|
E|------------------------|

Guitarra 2

E|------------------------------|
B|------------------------------|
G|------------------------------|
D|------------------------------|
A|--7s9--9--10-10-10| >s12--12s7--
E|--7s9--9--10-10-10| >s12--12s7--
00:00 / 00:00
Otros videos de esta canción
Repetir
Otros videos de esta canción
Composición de Sôber
    • ½ Tono
    • A
    • Bb
    • B
    • C
    • Db
    • D
    • Eb
    • E
    • F
    • F#
    • G
    • Ab
  • Agregar a la lista

    0 comentarios

    Ver todos los comentarios

    ¿Lograste tocar?

    0 Tocaron 0 Aún no

    ¡Graba un video tocando La Prisión Del Placer y envíanoslo!

    00:00 / 00:00
    OK