Cifra Club

Loco

Sober

Cifrado: Principal (guitarra y guitarra eléctrica)
tono: C
E|E|------------------------------------------------------------||

AFINACION

Dropped D: afina la sexta cuerda de tu guitarra dos semito-
nos menos (de E a D) y las cinco cuerdas restantes déjalas
en afinación standar

E|E|------------------------------------------------------------||


INTRO

E|----------x-x-x--------------|
B|----------x-x-x--------------|
G|----------x-x-x--------------|
D|---2s3s2--x-x-x--2s3s2--0-0--|
A|---2s3s2--x-x-x--2s3s2--0-0--|
E|---2s3s2--x-x-x--2s3s2--0-0--|


VERSO

1) (Estoy notando un clima...)

E|---------|
B|---------|
G|---------|
D|--2s3s2--|
A|--2s3s2--|
E|--2s3s2--|

2) (Vivir aislado como...)

Tocar lo mismo que en Intro


PD-C HORUS (...contempla su mirada)

E|----------------------------|
B|----------------------------|
G|----------------------------|
D|--2-2--0-0--6--3--2s3s2--0--|
A|--2-2--0-0--6--3--2s3s2--0--|
E|--2-2--0-0--6--3--2s3s2--0--|


CHORUS

1) (Una vez creí...)

Guitarra 1

E|--------------------------|
B|--------------------------|
G|--------------------------|
D|--2---2s12--12---10---7---|
A|--2---2s12--12---10---7---|
E|--2*--2s12--12*--10*--7*--|

Guitarra 2

E|----0------0----|
B|--0---0--0---0--|
G|----------------|
D|----------------|
A|----------------|
E|----------------|

2) (¡Loco!)

Tocar lo mismo que en Intro


G  O

[Con wah-wah (#)]

E|------------------------------------------------|
B|--------------------------------------------17--|
G|--16| >-----14b>--------------12----14p12--16-----
D|--16| >--14-------12h14-14b>-----14---------------
A|------------------------------------------------|
E|------------------------------------------------|
  ##                        ###########

E|-------------------------------------------------------|
B|-15h17p15h17p15h17p15--17s18| >-s15>----------10h11p10>--
G|------------------------------------9h12p9-------------|
D|-------------------------------------------------------|
A|-------------------------------------------------------|
E|-------------------------------------------------------|
 ####################  ##########           ########

E|-----------------------------------|
B|--------10p8----------------10s12| >-
G|-9h12p9------9p7-----7h9-----------|
D|-----------------7h9---------------|
A|-------------------------7---------|
E|-----------------------------------|
        ##################    ###

FINAL

E|-----------------|
B|-----------------|
G|-----------------|
D|--2-2-2--0-0--2--|
A|--2-2-2--0-0--2--|
E|--2-2-2--0-0--2--|
00:00 / 00:00
Otros videos de esta canción
Repetir
Otros videos de esta canción
Composición de Sôber
    • ½ Tono
    • A
    • Bb
    • B
    • C
    • Db
    • D
    • Eb
    • E
    • F
    • F#
    • G
    • Ab
  • Agregar a la lista

    0 comentarios

    Ver todos los comentarios

    ¿Lograste tocar?

    0 Tocaron 0 Aún no

    ¡Graba un video tocando Loco y envíanoslo!

    00:00 / 00:00
    OK