Cifra Club

Sober

Cifrado: Principal (guitarra y guitarra eléctrica)
tono: F
E|E|------------------------------------------------------------||

AFINACION

Dropped D: afina la sexta cuerda de tu guitarra dos semito-
nos menos (de E a D) y las cinco cuerdas restantes déjalas
en afinación standar

E|E|------------------------------------------------------------||


INTRO

1)

[Con efectos]

E|---------------------------|
B|---------------------------|
G|---------------------------|
D|--3h5p3-0--3h5p3-0--3h5p0--|
A|---------------------------|
E|---------------------------|

2)

[Esto lo hace el bajo]

E|-----------------------------|
B|-----------------------------|
G|-----------------------------|
D|-----------------------------|
A|-----------------------------|
E|--3-5-3--0--3-5-3--0--3-5-0--|


VERSO

1) (Si no me escuchas...)

E|-----------------------------|
B|-----------------------------|
G|-----------------------------|
D|-----------------------------|
A|--3-5-3--0--3-5-3--0--3-5-0--|
E|--3-5-3--0--3-5-3--0--3-5-0--|

2) (...llave prometida)

E|-----------------------|
B|-----------------------|
G|--3-3--3-3---5-5--5-5--|
D|--3-3--3-3---5-5--5-5--|
A|-----------------------|
E|-----------------------|

3) (Este es el botón...)

E|----------|
B|----------|
--3>--5>--
--3>--5>--
E|----------|
B|----------|


CHORUS (Deja tus miedos...)

Guitarra 1

     (x4)     (x4)        (x4)     (x3)
E|---------| ¡--------¡-----------¡--------¡---------¡--
B|---------| ¡--------¡-----------¡--------¡---------¡--
G|---------| ¡--------¡-----------¡--------¡---------¡--
D|--0-0--0-| ¡-3-3--3-¡-10-10--10-¡-8-8--8-¡---------¡--
A|--0-0--0-| ¡-3-3--3-¡-10-10--10-¡-8-8--8-¡-8---8s?-¡--
E|--0-0--0-| ¡-3-3--3-¡-10-10--10-¡-8-8--8-¡-8*--8s?-¡--
  PM..................................


Guitarra 2

-----------------------E|----------|
B|----------|-----------------------
--7---5---5s10--10--9---9s3--3---
---------------------------------
--5*--3*--3s8*---8--7*--7s1--1*--
---------------------------------


FINAL

1) (Acepta lo que te digo...)

Guitarra 1

[Con delay]              xxxxxxxxx
E|------------------------| ¡---------¡--
B|------------------------| ¡---------¡--
G|------------------------| ¡---------¡--
D|--0-7-0-8-7-7-8-0-0-7-0-| ¡-8-7-7-8-¡--
A|------------------------| ¡---------¡--
E|------------------------| ¡---------¡--
  PM.............................

La segunda vez que toques este riff en vez de tocar lo que
pone en la zona marcada con 'x' toca esto:

[Con delay]
-------------E|----------|
B|----------|---E|----------|
B|----------|-------------
--10-0-10-0-10-0-8-10--
-------------E|----------|
B|----------|-------------
  PM.................

Guitarra 2

-E|----------|
B|----------|-
-E|----------|
B|----------|-
--3h5--0>--
--3h5--0>--
  PM.....

2) (Echa a volar...)

-------------E|----------|
B|----------|-------------
------7>---------------
--0>--7>--0>-------0>--
--0>------0>-------0>--
--0>------0>--0h1--0>--

3) (Ihhhhhhh!)

Guitarra 1

-------------E|----------|
B|----------|---E|----------|
B|----------|-------------
--0-0--1--0-0--0-0--1--
--0-0--1--0-0--0-0--1--
--0-0--1--0-0--0-0--1--

Guitarra 2
                         (x3)
-----------------------------¡------------------E|----------|
B|----------|-------------------¡----------------------------
--7-7--7-7--8--7-7--7-7s5--5-¡-7-7--7-7s12--12s5--5-5--5--
-----------------------------¡----------------------------
--5-5--5-5--6--5-5--5-5s3--3-¡-5-5--5-5s10--10s3--3-3--3--
-----------------------------¡----------------------------

E|---------|
B|---------|
G|-5s8--8--|
D|---------|
A|-3s6--6--|
E|---------|

Guitarra 3

Varias veces
-----------------¡---E|----------|
B|----------|-------¡-13>--13h15--
--20b>--20-20-20-¡---E|----------|
B|----------|-------¡---E|----------|
B|----------|-------¡---E|----------|
B|----------|-------¡-------------

4)

  (x6)
E|------| ¡-----------
B|------| ¡-----------
G|------| ¡-----------
D|--1-0-| ¡-----------
A|--1-0-| ¡-0--0---0--
E|--1-0-| ¡-0--0*--0--
        PM......
00:00 / 00:00
Otros videos de esta canción
Repetir
Otros videos de esta canción
Composición de Sôber
    • ½ Tono
    • A
    • Bb
    • B
    • C
    • Db
    • D
    • Eb
    • E
    • F
    • F#
    • G
    • Ab
  • Agregar a la lista

    0 comentarios

    Ver todos los comentarios

    ¿Lograste tocar?

    0 Tocaron 0 Aún no

    ¡Graba un video tocando y envíanoslo!

    00:00 / 00:00
    OK