Cifra Club

Corazón Delator

Soda Stereo

Tab de bajo: Principal
afinacion: Drop d

intro:
--------------------------------
--------------------------------
--------------------------------
-0---2---0---2---5---7---2---2--

0:26
-------------------------
-------------------------
-------------------------  x2
-2--0--2--5--9-----------

--------------------------------
--------------------------------
-------------3--5----------3----
-7--5--7--9--------7--5--7------

0:48
-------------------------
-------------------------
-------------------------  x2
-2--0--2--5--9-----------

-------------------------------
-------------------------------
----------3--3--5--------------
-7--5--7-----------7--5--7-----

-------------------------------
----2-------------5------------
-3-----2--2-3--3-----2--6------
---------------------------4--3

-------------------------
-------------------------
-------------------------
-2-0-2--4--3-------------

                               

-------------------------
-------------------------  x2
-2--0--2--5--9-----------

-------------------------------
-------------------------------
----------3--3--5--------------
-7--5--7-----------7--5--7-----

-------------------------------
----2-------------5------------
-3-----2--2-3--3-----2--6------
---------------------------4--3

-------------------------
-------------------------
-------------------------
-2-0-2--4--3-------------

---------7------------------------
-----5----------------------------
-------------------------3--7--5-7
-5----------7--5--2-2-2-----------

------------------------------------
------------------------------------
------3--2--1--8--5--3-7-7-5-7------
-2-2-----------------------------2-2

-----------------------------
-----------------------------
-3--7-7-5-7-------3--2--1--8-
-------------2-2-------------

-------------------------
-------------------------
-5--3--------------------
-------7--5--------------

2:50
 
                                   

-------------------------
-------------------------
-------------------------  x2
-2--0--2--5--9-----------

--------------------------------
--------------------------------
-------------3--5----------3----
-7--5--7--9--------7--5--7------


-------------------------
-------------------------
-7-7-5-7------3-----------
----------2-2--------------

----------------------------
---------------------------- x11
--------5-5-3---------------
-2-2-0-2--------------------

final:
---------------------------
---------------------------
-2---0---------------------
-----------5----2----------
00:00 / 00:00
Otros videos de esta canción
Repetir
Otros videos de esta canción
Composición de Gustavo Cerati
Colaboración y revisión:
  • Dario Chpichones
227 exhibiciones
00:00 / 00:00
OK