Cifra Club

Corazón Delator

Soda Stereo

Cifrado: Versão 3 (guitarra y guitarra eléctrica)
tono: Em
Intro 1

E|-12-----------12-------------12-------------------------12-| I
B|------10b(12)------10b(12)-------10--12b(14)--14f12-----| I
G|-------------------------------------------------------------| I
D|-------------------------------------------------------------| I
A|-------------------------------------------------------------| I
E|-------------------------------------------------------------| I

intro 2

E|-15----14--12-----5------7-| I
B|-12---------------8------8-| I
G|-12---------------7------7-| Ix2
D|----------------------------| I
A|----------------------------| I
E|----------------------------| I

intro 3

E|---------------5-----------------------5-------------------5---| I
B|-----5----8------------------5----8--------------5----8-------| I
G|---5----------------------5--------------------6--------------| I
D|-7----------------------5-------------------7------------| I
A|----------------------------------------------------------| I
E|------------------------------------------------------------|

E|--------7-------| I
B|------8---------| I
G|----9-----------| I
D|-10-------------| I
A|-----------------| I
E|-----------------| I
Empieza a cantar Cerati

Un señuelo
E|-15----14--12------5-----7-| I
B|-12----------------8-----8-| I
G|-12----------------7-----7-| I
D|----------------------------| I
A|----------------------------| I
E|----------------------------| I
hay algo oculto en cada sensación
E|-15----14--12-----5------7-| I
B|-12---------------8------8-| I
G|-12---------------7------7-| I
D|----------------------------| I
A|----------------------------| I
E|----------------------------| I

ella parece sospechar parece descubrir
E|-------------------------------------------------------| I
B|-----5-----------------------5--------------------5----| I
G|---5----------------------5--------------------6------| I
D|-7----------------------5-------------------7---------| I
A|-------------------------------------------------------| I
E|-------------------------------------------------------| I

en mi debilidad
E|---------7------------------------------------------------| I
B|--------8--------------------7-------------------------------| I
G|------9--------------------7-------------------7h9-7-------| I
D|----10-------------------7-----------------7----------------| I
A|--------------------------------------------------------------| I
E|--------------------------------------------------------| I

los vestigios de una hoguera
E|---------7---------------7-----------7-------------| I
B|--------8---------------7----------7---------------| I
G|------9----------------9---------8----------------| I
D|----10----------------9--------9-------------------| I
A|-----------------------------------------------| I
E|----------------------------------------------| I


coro
oh mi corazón se vuelve delator
E|------------------------------------0---------------------| I
B|---------2----------1-------------0----------------------| I
G|-------2----------2-------------0------------------------| I
D|-----4----------3-------------2--------------------------| I
A|-----------------------------2----------------------------| I
E|----------------------------------------------------------| I
Traicionandome
E|---------------------------| I
B|---------2----------1----| I
G|-------2----------2------| I
D|-----4----------3--------| I
A|--------------------------| I
E|--------------------------| I

por descuido
E|-15----14--12-----5------7-| I
B|-12---------------8------8-| I
G|-12---------------7------7-| Ix2
D|----------------------------| I
A|----------------------------| I
E|----------------------------| I
fui victima del todo alguna vez
E|-15----14--12-----5------7-| I
B|-12---------------8------8-| I
G|-12---------------7------7-| Ix2
D|----------------------------| I
A|----------------------------| I
E|----------------------------| I

ella lo puede percibir, ya nada puede impedir
E|-------------------------------------------------------| I
B|-----5-----------------------5--------------------5----| I
G|---5----------------------5--------------------6------| I
D|-7----------------------5-------------------7---------| I
A|-------------------------------------------------------| I
E|-------------------------------------------------------| I
en mi fragilidad
E|----------7---------------------------7h10p7-------------------------| I
B|--------8-------------------7---------------7h10p7------------------| I
G|------9-------------------7------------------------7h9p7-----------| I
D|---10-------------------7---------------------------------7h9p7----| I
A|----------------------------------------------------------------| I
E|----------------------------------------------------------------| I

es el curso de las cosas
E|---------7---------------7-----------7-------------------------| I
B|--------8---------------7----------7------------------------| I
G|------9----------------9---------8----------------------------| I
D|----10----------------9--------9-------------------------------| I
A|---------------------------------------------------------------| I
E|---------------------------------------------------------------| I

coro
oh mi corazón se vuelve delator
E|------------------------------------0---------------------| I
B|---------2----------1-------------0----------------------| I
G|-------2----------2-------------0------------------------| I
D|-----4----------3-------------2--------------------------| I
A|-----------------------------2----------------------------| I
E|----------------------------------------------------------| I
Se abren mis esposas
E|--------------------------------------2-----5---3--| I
B|---------2----------1-----------------3-----5---3--| I
G|-------2----------2-------------------2-----6---4--| I
D|-----4----------3---------------------0-----7---5--| I
A|--------------------------------------3-----7---5--| I
E|--------------------------------------------5---3---| I
un suave látigo una premonición
E|---7--------8------7------------------8---------| I
B|---8--------8------8------------------8---------| I
G|---9--------9------9------------------9---------| I
D|---9--------10-----9-----------------10--------| I
A|---7--------10-----7-----------------10--------| I
E|---7--------8-------7-----------------8---------| I
dibujan llagas en las manos
E|-7---------6--------------5---------10---8---| I
B|-7---------6--------------6---------10---8---| I
G|-7---------7--------------5---------11---9---| I
D|-9---------8--------------7---------12---10--| I
A|-9---------8--------------8---------12---10--| I
E|-7---------6--------------5---------10---8---| I
un dulce palpito la clave intima
E|---7--------8------7------------------8---------| I
B|---8--------8------8------------------8---------| I
G|---9--------9------9------------------9---------| I
D|---9--------10-----9-----------------10--------| I
A|---7--------10-----7-----------------10--------| I
E|---7--------8-------7-----------------8---------| I
se van cayendo de mis labios
E|-7---------6--------------5---------10---8-----5---3-| I
B|-7---------6--------------6---------10---8-----5---3-| I
G|-7---------7--------------5---------11---9-----6---4-| I
D|-9---------8--------------7---------12---10----7---5-| I
A|-9---------8--------------8---------12---10----7---5-| I
E|-7---------6--------------5---------10---8-----5---3--| I

se repite intro1, intro2 e intro3
intro3 (2ª guitarra)

E|-------3-----------5------------8----12--| I
B|-3b(5)------5b(7)------8b(10)----------| I
G|-------------------------------------------| I
D|-------------------------------------------| I
A|-------------------------------------------| I
E|-------------------------------------------| I

Un señuelo
E|-15----14--12-----5------7-| I
B|-12---------------8------8-| I
G|-12---------------7------7-| Ix2
D|----------------------------| I
A|----------------------------| I
E|----------------------------| I
hay algo oculto en cada sensación
E|-15----14--12-----5------7-| I
B|-12---------------8------8-| I
G|-12---------------7------7-| Ix2
D|----------------------------| I
A|----------------------------| I
E|----------------------------| I

ella parece sospechar parece descubrir
E|-------------------------------------------------------| I
B|-----5-----------------------5--------------------5----| I
G|---5----------------------5--------------------6------| I
D|-7----------------------5-------------------7---------| I
A|-------------------------------------------------------| I
E|-------------------------------------------------------| I

en mi que aquel amor
E|---------7-----------------------------------------------| I
B|--------8-------------------7----------------------------| I
G|------9--------------------7-------------------------------| I
D|----10-------------------7--------------------------------| I
A|------------------------------------------------------------| I
E|-----------------------------------------------------------| I

es como un oceano de fuego
E|---------7---------------7-----------7---------------------| I
B|--------8---------------7----------7------------------------| I
G|------9----------------9---------8-----------------------| I
D|----10----------------9--------9----------------------------| I
A|----------------------------------------------------------------| I
E|------------------------------------------------------------| I

coro
oh mi corazón se vuelve delator
E|------------------------------------0---------------------| I
B|---------2----------1-------------0----------------------| I
G|-------2----------2-------------0------------------------| I
D|-----4----------3-------------2--------------------------| I
A|-----------------------------2----------------------------| I
E|----------------------------------------------------------| I

la fiebre volverá De nuevo
E|--------------------------------------2-----5---3--| I
B|---------2----------1-----------------3-----5---3--| I
G|-------2----------2-------------------2-----6---4--| I
D|-----4----------3---------------------0-----7---5--| I
A|--------------------------------------3-----7---5--| I
E|--------------------------------------------5---3---| I
un suave látigo una premonición
E|---7--------8------7------------------8---------| I
B|---8--------8------8------------------8---------| I
G|---9--------9------9------------------9---------| I
D|---9--------10-----9-----------------10--------| I
A|---7--------10-----7-----------------10--------| I
E|---7--------8-------7-----------------8---------| I
dibujan llagas en las manos
E|-7---------6--------------5---------10---8---| I
B|-7---------6--------------6---------10---8---| I
G|-7---------7--------------5---------11---9---| I
D|-9---------8--------------7---------12---10--| I
A|-9---------8--------------8---------12---10--| I
E|-7---------6--------------5---------10---8---| I
un dulce palpito la clave intimaaaaaaaa
E|---7--------8------7------------------8---------| I
B|---8--------8------8------------------8---------| I
G|---9--------9------9------------------9---------| I
D|---9--------10-----9-----------------10--------| I
A|---7--------10-----7-----------------10--------| I
E|---7--------8-------7-----------------8---------| I
se van cayendo de mis labios
E|-7---------6--------------5---------10---8-----5---3-| I
B|-7---------6--------------6---------10---8-----5---3-| I
G|-7---------7--------------5---------11---9-----6---4-| I
D|-9---------8--------------7---------12---10----7---5-| I
A|-9---------8--------------8---------12---10----7---5-| I
E|-7---------6--------------5---------10---8-----5---3--| I
como un mantra
E|-7-----5-----3----| I
B|-8-----7-----5----| I
G|-9-----7-----5----| I
D|-9-----7-----5----| I
A|-7-----5-----3----| I
E|-7-----5-----3----| I
de mis labios
E|-7-----5-----3----| I
B|-8-----7-----5----| I
G|-9-----7-----5----| I
D|-9-----7-----5----| I
A|-7-----5-----3----| I
E|-7-----5-----3----| I
de mi labioooooooooooooosss
E|-7-----5-----3----| I
B|-8-----7-----5----| I
G|-9-----7-----5----| I
D|-9-----7-----5----| I
A|-7-----5-----3----| I
E|-7-----5-----3----| I

E|-7-----5-----3------------------------------------------| I
B|-8-----7-----5-------------------------------------------| I
G|-9-----7-----5-------------------------------------------| I
D|-9-----7-----5-----2--------0--2--0--2--0--2--4--2--0--2--| I
A|-7-----5-----3-----2---0--2-----------------------------| I
E|-7-----5-----3-----0-------------------------------------| I

E|-------12---------10-----------12-----------12------| I
B|-10-12-----10-12-------10-12-------10-12----------| I
G|-------------------------------------------------------| I
D|-------------------------------------------------------| I
A|-------------------------------------------------------| I
E|------------------------------------------------------| I

E|-----15/17----17----17----17----17----17-----------| I
B|-----------15----15----15----17----17---17----------| I
G|----------------------------------------------------| I
D|-------------------------------------------------------| I
A|-----------------------------------------------------| I
E|--------------------------------------------------| I

E|------7------------| I
B|------7------------| I
G|------7------------| I
D|------7------------| I
00:00 / 00:00
Otros videos de esta canción
Repetir
Otros videos de esta canción
Composición de Gustavo Cerati
45 exhibiciones
    • ½ Tono
    • Am
    • Bbm
    • Bm
    • Cm
    • C#m
    • Dm
    • Ebm
    • Em
    • Fm
    • F#m
    • Gm
    • G#m
  • Agregar a la lista
    00:00 / 00:00
    OK