Cifra Club

Entre Canibales

Soda Stereo

Tablatura: Principal (guitarra)
Tom: F#
[Intro] Am  G  D  Em
        Am  G  D  Em
        Am  G  D  C
        Em  C  D  Am
        Em  C  D  Am
        Em  C  D  C
        D  C  D  C  D

E|--------------------------------------------------------------------2------2------2-------2-|
B|---------------------------------------------------------------1----3-1xxxx3-1xxxx3-1xxxx-3-|
G|---------------------------------------------------------------3----2-3xxxx2-3xxxx2-3xxxx-2-|
D|---------------------------------------------------------------2----0-2xxxx0-2xxxx0-2xxxx-0-|
A|-7-x-0-2-3-x-x-4/5--------------7-x-0-2-3-x-x-4/5--------------3------3------3------3-------|
E|----------------x-2-3-5-x-x--------------------x-2-3-5-x-x----------------------------------|

[Pré-Refrão]

C7               D7
E|---------------------------------------------------------------------------------------------------|
B|---------------------------------------------------------------1-1-1-x-1--1111--3-3-3-x-3--3333----|
G|---------------------------------------------------------------3-3-3-x-3--3333--5-5-5-x-5--5555----|
D|---------------------------------------------------------------2-2-2-x-2--2222--4-4-4-x-4--4444----|
A|-7-x-0-2-3-x-x-4/5--------------7-x-0-2-3-x-x-4/5--------------3-3-3-x-3--3333--5-5-5-x-5--5555----|
E|----------------x-2-3-5-x-x--------------------x-2-3-5-x-x-----------------------------------------|
                
     Em      Bm
Una eternidad
    D        Am      G  D/F#
Esperé  este instante
        Em    Bm
Y no lo dejaré
     D          C7
Deslizar en recuerdos quietos  
       D7                       E7/G#
Ni en balas rasantes que matan

    C7               D7             E7
E|----------------------------------------|
B|-1-1-1-x-1--1111--3-3-3-x-3-----5555----|
G|-3-3-3-x-3--3333--5-5-5-x-5-----7777----|
D|-2-2-2-x-2--2222--4-4-4-x-4-----6666----|
A|-3-3-3-x-3--3333--5-5-5-x-5-----7777----|
E|----------------------------------------|

[Refrão]

Am  G  D       Em      Am     G     D  Em
Ah....come de mí come de mi carne
Am  G  D  Em        Am     G     D  C
Ah........entre caníbales
Em  C  D         Am7          Em  C  D  Am7
Ah.....tómate el tiempo en desmenuzarme
Em  C  D  Am7         C       
Ah..........entre caníbales

( D  C  D  C  D )

        Em     Bm
Entre caníbales
     D          Am7        G  D/F#
El dolor    es veneno, nena
        Em      Bm
Y no lo sentirás
         D                  C7
Hasta el fin    mientras te muevas lento,
     D7                E7/G#
Y jadees el nombre que matan

   C7               D7             E7
E|----------------------------------------|
B|-1-1-1-x-1--1111--3-3-3-x-3-----5555----|
G|-3-3-3-x-3--3333--5-5-5-x-5-----7777----|
D|-2-2-2-x-2--2222--4-4-4-x-4-----6666----|
A|-3-3-3-x-3--3333--5-5-5-x-5-----7777----|
E|----------------------------------------|

[Refrão]

Am  G  D       Em      Am     G     D  Em
Ah....come de mí come de mi carne
Am  G  D  Em        Am     G     D  C
Ah........entre caníbales
Em  C  D         Am7          Em  C  D  Am7
Ah.....tómate el tiempo en desmenuzarme
Em  C  D  Am7         C       
Ah..........entre caníbales

( D  C  D  C )
( D  C  D )

[Solo] Gm  Eb  F  Cm

E|-------------------------------|
B|-----8-------------------------|
G|-7h9---9-7---------------------|
D|-----------9-7-9-7-5---5-------|
A|---------------------7---7-5---|
E|-----------------------------7-|

[Riff 1]

E|-----------------------------------------7-8-7-5-------------|
B|-4---------4-2-4---------4-2-4-------4-2---------4-2-4h5-5-4-|
G|---2-4-2-2-------2-4-2-2-------2-4-2-------------------------|
D|-------------------------------------------------------------|
A|-------------------------------------------------------------|
E|-------------------------------------------------------------|

( Em  Am7  D  Am7 )
( Em  Am7  D  Am7 )
( Em  Am7  D  Am7 )
( Em  Am7  D  Am7 )

Gm  Eb  F  Cm
Ah                     una eternidad
     Gm  Eb          F     Cm
Esperé      este instante
reproducciones 15.351
Acordes para:
    Composição: Gustavo Cerati Colaboración y revision:
    • Alvaro Reyes
    • Victor Ossa
    • Luís Biavati

    0 comentarios

    mostrar más comentarios

    ¿Conseguiste tocar?

    0 tocaron 0 aún no

    ¡Graba un vídeo tocando Entre Canibales y envianoslo!

    00:00 / 00:00
    outros vídeos desta música
    repetir qualidade Automático
    Outros vídeos desta música
    00:00 / 00:00
    Automático
    OK