Cifra Club

Musica Ligera Solo

Soda Stereo

Cifrado: Principal (guitarra y guitarra eléctrica)
tono: G
|--7--5--7---5---7---5----------------------------7s12----12---10--9---10---12----10--9---7---9--|
|------------------------------7---5---7---5---7-------------------------------------------------|
|------------------------------------------------------------------------------------------------|
|------------------------------------------------------------------------------------------------|
|------------------------------------------------------------------------------------------------|
|------------------------------------------------------------------------------------------------|

|----------------------------------------------------------------------------------------------------|
|-10-10s12------10h12---10h12-------------------------------10h12---10h12----------------------------|
|---------------------------------------------10h12-------10h12-------------------------10h12-10h12--|
|----------------------------------------------------------------------------------------------------|
|----------------------------------------------------------------------------------------------------|
|----------------------------------------------------------------------------------------------------|

|--14---12---14--12--14--15--14--12--12--14--15-14--12--10--9--10--12--10--9--|
|-----------------------------------------------------------------------------|
|-----------------------------------------------------------------------------|
|-----------------------------------------------------------------------------|
|-----------------------------------------------------------------------------|
|-----------------------------------------------------------------------------|

You can like improvise a little bit in 9th, 7th, 5th frets in second string and that's it...
Compositor não encontrado.
2.976 vistas
    • ½ Tono
    • A
    • Bb
    • B
    • C
    • Db
    • D
    • Eb
    • E
    • F
    • F#
    • G
    • Ab
  • Agregar a la lista

    0 comentarios

    Ver todos los comentarios

    ¿Lograste tocar?

    0 Tocaron 0 Aún no

    ¡Graba un video tocando Musica Ligera Solo y envíanoslo!

    00:00 / 00:00
    Outros vídeos desta música
    Repetir Calidad Automático
    Outros vídeos desta música
    00:00 / 00:00
    Automático
    OK