Cifra Club

Un Misil En Mi Placard

Soda Stereo

Cifrado: Versão 3 (guitarra y guitarra eléctrica)
tono: D
      E  A  D  G  B  E
?1:   x  4  4  2  2  x
?2:   x  9  9  7  7  x

intro: (A' G' ?1 Em7)X3  A' G' Bm(este Bm un tiempo mas)
A'      G'             ?1   Em7
Refugiados sobre el divan
agitados por nuestras formas
algo ocurrio una extraña sensacion,un presentimiento
A'                G'                    Bm(un tiempo mas)
tuve que dejar de hacer el amor en el momento.

A'        G'        ?1   Em7
Fui en busca de un abrigo
encendi un cigarrillo...

A'
y ahi lo vi
      G'           ?1  G'
un misil en mi placard,mi placard
     A'
un modelo para armar
      G'           Bm
pero nunca para desarmar

G  O

E|---------------------------------|
B|---------------------------------|
G|---------------------------------|
D|-----------------------------4v--| X2
A|---------5(5.5)----7---(7.)------|
E|-7(7.7.7)------------------------|

E|-----------------------------------------5------7-5|
B|----------7-6-5(5.5)-7(7.7)-7(7.)-7---5-7--5-7--7-5|
G|--4------------------------------------------------|
D|-4-4--7-7------------------------------------------|
A|---------------------------------------------------|
E|---------------------------------------------------|
TERE NA EN F#m7

A'   G'          ?1   Em7
Te mire tristemente
no hay mas tiempo que perder...
A'
Estaba ahi
      G'            ?1 G'
un misil en mi placard,mi placard
     A'
un modelo para armar
      G'         Bm
pero nunca para desarmar

A'(X4)G'
?2(X4)A'G'
aqui tambieeeeeeeeeeeeeen
vos creias que estabas lejos
tambieeeeenn
vos creias que estabas lejos

FINAL:
Em7 F#m7
Composición de Gustavo Cerati
2 vistas
    • ½ Tono
    • A
    • Bb
    • B
    • C
    • Db
    • D
    • Eb
    • E
    • F
    • F#
    • G
    • Ab
  • Agregar a la lista

    0 comentarios

    Ver todos los comentarios

    ¿Lograste tocar?

    0 Tocaron 0 Aún no

    ¡Graba un video tocando Un Misil En Mi Placard y envíanoslo!

    00:00 / 00:00
    Outros vídeos desta música
    Repetir Calidad Automático
    Outros vídeos desta música
    00:00 / 00:00
    Automático
    OK