Cifra Club

Un Misil En Mi Placard

Soda Stereo

Cifrado: Versão 4 (guitarra y guitarra eléctrica)
tono: E
INTRO: G#m - A - C#m - E x2



G#m         A        C#m        E
Refugiados sobre el divan, buscandonos
G#m          A         C#m       E
agitados por nuestras formas, buscandonos
B           A           G#m            A
algo ocurrio, una extraña sensacion, un presentimiento
B             A           E             F#m
tuve que dejar de hacer el amor en el momento

G#m          A          C#m        E
fui en busca de un abrigo, hacia frio
G#m           A          C#m    E
encendi un cigarrillo, tenia miedo
B          A              G#m           A
y ahi lo vi, un misil en mi placard, en mi placard
B               A                C#m
un modelo para armar, pero nunca para desarmar e|-5-|-4-|
B|-5-|-5-|
G|-4-|-4-|

E|-------------0--0-0-0---|-----------------0---|
B|-------------0--0----0--|-----------------0---|
G|-11-11-11-9--8--6--6--6-|-9--9--9--9---8--6---|
D|-9--9--9--9--9--7-------|-9--9--9--9---9--7---| X2
A|-9--9--9--9--9--7-------|-11-11-11-11--9--9---|
E|------------------------|---------------------|

oh yeah yeah
oh oh


G#m        A       C#m       E
Te mire tristemente, tristemente
G#m         A       C#m       E
no hay mas tiempo que perder, sonreiste
B           A        G#m            A
estaba ahi, un misil en mi placard, en mi placard
B            A                C#m
un modelo para armar, pero nunca para desarmar

E|-------------0--0-0-0---|-----------------0---|
B|-------------0--0----0--|-----------------0---|
G|-11-11-11-9--8--6--6--6-|-9--9--9--9---8--6---|
D|-9--9--9--9--9--7-------|-9--9--9--9---9--7---|
A|-9--9--9--9--9--7-------|-11-11-11-11--9--9---|
E|------------------------|---------------------|

Solo:
E|-12p11-12p11----------------------------------|
B|------------12----------12/14-12~-------------|
G|--------------11-9---------------12/14-13~-11-|
D|------------------13~-14----------------------|
A|----------------------------------------------|
E|----------------------------------------------|

E|-----------------------------------------------------|
B|--------------------------7-9~-10-12-9-12-10-12-9-12-|
G|-9-8-9-11--------------8-9---------------------------|
D|---------9---------9-11------------------------------|
A|---------------9-11----------------------------------|
E|----------11-12--------------------------------------|

E|----------------------------------------------------------0--0-------|
B|-2/-12~-12/14---/9-9-9-9-----------------------------------0--0------|
G|-------------14~--------11-9/11-9~-4-4b6-2------------------1--------|
D|------------------------------------------/6-6-6-6-4-2/4-2-----------|
A|---------------------------------------------------------------------|
E|---------------------------------------------------------------------|


Aqui tambien, creias que estabas lejos
aqui tambien, aqui tambien
uh uh uh ah
uh uh uh ah

E             F#m
un misil en mi placard
E             F#m
un misil en mi placard
E       F#m
aqui tambien
Composición de Gustavo Cerati
    • ½ Tono
    • A
    • Bb
    • B
    • C
    • Db
    • D
    • Eb
    • E
    • F
    • F#
    • G
    • Ab
  • Agregar a la lista

    0 comentarios

    Ver todos los comentarios

    ¿Lograste tocar?

    0 Tocaron 0 Aún no

    ¡Graba un video tocando Un Misil En Mi Placard y envíanoslo!

    00:00 / 00:00
    Outros vídeos desta música
    Repetir Calidad Automático
    Outros vídeos desta música
    00:00 / 00:00
    Automático
    OK