Cifra Club

Agent Orange

Sodom

Cifrado: Principal (guitarra y guitarra eléctrica)
tono: C
Agent Orange 


E||-------------------|--------------------------|-------------------------|
B||-------------------|--------------------------|-------------------------|
G||-------------------|--------------------------|-------------------------|
D||-------------------|--------------------------|--------------3/-4-------|
A||-------------------|--------4-----5--------4--|--------------1/-2--5----|
E||--------------7/---|--0--0--2--0--3--0--0--2--|--0--0--0--0--------3----|


--------------------------|--------------------------|
--------------------------|--------------------------|
--------------------------|--------------------------|
--------------------------|--------------4/-3--5/-4--|
--------4-----5--------4--|--------------2/-1--3/-2--|
--0--0--2--0--3--0--0--2--|--0--0--0--0--------------|

--------------------------|-------------------------|--------------------------|
--------------------------|-------------------------|--------------------------|
--------------------------|-------------------------|--------------------------|
--------------------------|--------------3/-4-------|--------------------------|
--------4-----5--------4--|--------------1/-2--5----|--------4-----5--------4--|
--0--0--2--0--3--0--0--2--|--0--0--0--0--------3----|--0--0--2--0--3--0--0--2--|

--------------------------|--------------------------|-------------------------|
--------------------------|--------------------------|-------------------------|
--------------------------|--------------------------|-------------------------|
--------------4/-3--5/-4--|--------------------------|--------------3/-4-------|
--------------2/-1--3/-2--|--------4-----5--------4--|--------------1/-2--5----|
--0--0--0--0--------------|--0--0--2--0--3--0--0--2--|--0--0--0--0--------3----|

--------------------------|--------------------------|
--------------------------|--------------------------|
--------------------------|--------------------------|
--------------------------|--------------4/-3--5/-4--|
--------4-----5--------4--|--------------2/-1--3/-2--|
--0--0--2--0--3--0--0--2--|--0--0--0--0--------------|

--------------------------|-------------------------|--------------------------|
--------------------------|-------------------------|--------------------------|
--------------------------|-------------------------|--------------------------|
--------------------------|--------------3/-4-------|--------------------------|
--------4-----5--------4--|--------------1/-2--5----|--------4-----5--------4--|
--0--0--2--0--3--0--0--2--|--0--0--0--0--------3----|--0--0--2--0--3--0--0--2--|

--------------------------||-------------------------------------|
--------------------------||-------------------------------------|
--------------------------||*-------------------9----------------|
--------------4/-3--5/-4--||*--2----------------9----------------|
--------------2/-1--3/-2--||---2----2--2--2--2--7----7--7--7--7--|
--0--0--0--0--------------||---0----0--0--0--0-------0--0--0--0--|

------------------------------------|------------------------------------|
------------------------------------|------------------------------------|
--5----------------5----------------|------------------------------------|
--5----5--5--5--5--2----2--2--2--2--|--4----------------4----------------|
--3----3--3--3--3--3----3--3--3--3--|--4----4--4--4--4--0----0--0--0--0--|
------------------------------------|--2----2--2--2--2--2----2--2--2--2--|

2x 
-------------------------------------||------------------------------------|
-------------------------------------||------------------------------------|
------------------------------------*||--4----------------4----------------|
--3----------------3----------------*||--4----4--4--4--4--4----4--4--4--4--|
--3----3--3--3--3--0----0--0--0--0---||--2----2--2--2--2--2----2--2--2--2--|
--1----1--1--1--1--1----1--1--1--1---||------------------------------------|

------------------------------------|------------------------------------|
------------------------------------|------------------------------------|
--5----------------5----------------|------------------------------------|
--5----5--5--5--5--5----5--5--5--5--|--4----------------4----------------|
--3----3--3--3--3--3----3--3--3--3--|--4----4--4--4--4--4----4--4--4--4--|
------------------------------------|--2----2--2--2--2--2----2--2--2--2--|

--------------------------------------|------------------------------------|
--------------------------------------|------------------------------------|
--------------------------------------|--4----------------4----------------|
--5/-4--------------5/-4--------------|--4----4--4--4--4--4----4--4--4--4--|
--5/-4--4--4--4--4--5/-4--4--4--4--4--|--2----2--2--2--2--2----2--2--2--2--|
--3/-2--2--2--2--2--3/-2--2--2--2--2--|------------------------------------|

------------------------------------|------------------------------------|
------------------------------------|------------------------------------|
--5----------------5----------------|------------------------------------|
--5----5--5--5--5--5----5--5--5--5--|--4----------------4----------------|
--3----3--3--3--3--3----3--3--3--3--|--4----4--4--4--4--4----4--4--4--4--|
------------------------------------|--2----2--2--2--2--2----2--2--2--2--|

--------------------------------------|-------------------|------------------|
--------------------------------------|-------------------|------------------|
--------------------------------------|-------------------|------------------|
--5/-4--------------5/-4--------------|--2----------------|------------------|
--5/-4--4--4--4--4--5/-4--4--4--4--4--|--2----------------|------------------|
--3/-2--2--2--2--2--3/-2--2--2--2--2--|--0----------------|------------------|

----------------------------------|------------------------------|
----------------------------------|------------------------------|
----------------------------------|------------------------------|
----------------------------------|------------------4/-3--5/-4--|
----------------------------------|------------------2/-1--3/-2--|
--0-0-0-0-0-0-0-0-0-0-0-0-0-0-0-0-|--0-0-0-0-0-0-0-0-------------|

----------------------------------|----------------------------|
----------------------------------|----------------------------|
----------------------------------|----------------------------|
----------------------------------|------------------4---------|
----------------------------------|------------------2----4----|
--0-0-0-0-0-0-0-0-0-0-0-0-0-0-0-0-|--0-0-0-0-0-0-0-0------2----|

----------------------------------|------------------------------|
----------------------------------|------------------------------|
----------------------------------|------------------------------|
----------------------------------|------------------4/-3--5/-4--|
----------------------------------|------------------2/-1--3/-2--|
--0-0-0-0-0-0-0-0-0-0-0-0-0-0-0-0-|--0-0-0-0-0-0-0-0-------------|

----------------------------------|-------------------------|
----------------------------------|-------------------------|
----------------------------------|-------------------------|
----------------------------------|--3--3-----3--3-----4----|
----------------------------------|--1h-0-----1h-0-----2----|
--0-0-0-0-0-0-0-0-0-0-0-0-0-0-0-0-|--------0--------0-------|

----------------------------------|------------------------------|
----------------------------------|------------------------------|
----------------------------------|------------------------------|
----------------------------------|------------------4/-3--5/-4--|
----------------------------------|------------------2/-1--3/-2--|
--0-0-0-0-0-0-0-0-0-0-0-0-0-0-0-0-|--0-0-0-0-0-0-0-0-------------|

----------------------------------|----------------------------|
----------------------------------|----------------------------|
----------------------------------|----------------------------|
----------------------------------|------------------4---------|
----------------------------------|------------------2----4----|
--0-0-0-0-0-0-0-0-0-0-0-0-0-0-0-0-|--0-0-0-0-0-0-0-0------2----|

----------------------------------|------------------------------|
----------------------------------|------------------------------|
----------------------------------|------------------------------|
----------------------------------|------------------4/-3--5/-4--|
----------------------------------|------------------2/-1--3/-2--|
--0-0-0-0-0-0-0-0-0-0-0-0-0-0-0-0-|--0-0-0-0-0-0-0-0-------------|

----------------------------------|-------------------------|
----------------------------------|-------------------------|
----------------------------------|-------------------------|
----------------------------------|--3--3-----3--3-----4----|
----------------------------------|--1h-0-----1h-0-----2----|
--0-0-0-0-0-0-0-0-0-0-0-0-0-0-0-0-|--------0--------0-------|

----------------------------------|------------------------------|
----------------------------------|------------------------------|
----------------------------------|------------------------------|
----------------------------------|------------------4/-3--5/-4--|
----------------------------------|------------------2/-1--3/-2--|
--0-0-0-0-0-0-0-0-0-0-0-0-0-0-0-0-|--0-0-0-0-0-0-0-0-------------|

----------------------------------|----------------------------|
----------------------------------|----------------------------|
----------------------------------|----------------------------|
----------------------------------|------------------4---------|
----------------------------------|------------------2----4----|
--0-0-0-0-0-0-0-0-0-0-0-0-0-0-0-0-|--0-0-0-0-0-0-0-0------2----|

----------------------------------|------------------------------|
----------------------------------|------------------------------|
----------------------------------|------------------------------|
----------------------------------|------------------4/-3--5/-4--|
----------------------------------|------------------2/-1--3/-2--|
--0-0-0-0-0-0-0-0-0-0-0-0-0-0-0-0-|--0-0-0-0-0-0-0-0-------------|

----------------------------------|-------------------------|
----------------------------------|-------------------------|
----------------------------------|-------------------------|
----------------------------------|--3--3-----3--3-----4----|
----------------------------------|--1h-0-----1h-0-----2----|
--0-0-0-0-0-0-0-0-0-0-0-0-0-0-0-0-|--------0--------0-------|

----------------------------------|------------------------------|
----------------------------------|------------------------------|
----------------------------------|------------------------------|
----------------------------------|------------------4/-3--5/-4--|
----------------------------------|------------------2/-1--3/-2--|
--0-0-0-0-0-0-0-0-0-0-0-0-0-0-0-0-|--0-0-0-0-0-0-0-0-------------|

----------------------------------|----------------------------|
----------------------------------|----------------------------|
----------------------------------|----------------------------|
----------------------------------|------------------4---------|
----------------------------------|------------------2----4----|
--0-0-0-0-0-0-0-0-0-0-0-0-0-0-0-0-|--0-0-0-0-0-0-0-0------2----|

----------------------------------|------------------------------|
----------------------------------|------------------------------|
----------------------------------|------------------------------|
----------------------------------|------------------4/-3--5/-4--|
----------------------------------|------------------2/-1--3/-2--|
--0-0-0-0-0-0-0-0-0-0-0-0-0-0-0-0-|--0-0-0-0-0-0-0-0-------------|

----------------------------------|-------------------------|
----------------------------------|-------------------------|
----------------------------------|-------------------------|
----------------------------------|--3--3-----3--3-----4----|
----------------------------------|--1h-0-----1h-0-----2----|
--0-0-0-0-0-0-0-0-0-0-0-0-0-0-0-0-|--------0--------0-------|

----------------------------------|----------------------------------|
----------------------------------|----------------------------------|
----------------------------------|----------------------------------|
----------------------------------|----------------------------------|
----------------------------------|--------------------------3-3-3-3-|
--1-1-1-1-1-1-1-1-1-1-1-1-1-1-1-1-|--1-1-1-1-1-1-1-1-1-1-1-1---------|

----------------------------------|----------------------------------|
----------------------------------|----------------------------------|
----------------------------------|----------------------------------|
----------------------------------|----------------------------------|
--2-2-2-2-2-2-2-2-2-2-2-2-2-2-2-2-|--2-2-2-2-2-2-2-2-2-2-2-2-2-2-2-2-|
----------------------------------|----------------------------------|

----------------------------------|----------------------------------|
----------------------------------|----------------------------------|
----------------------------------|----------------------------------|
----------------------------------|----------------------------------|
----------------------------------|--------------------------3-3-3-3-|
--1-1-1-1-1-1-1-1-1-1-1-1-1-1-1-1-|--1-1-1-1-1-1-1-1-1-1-1-1---------|

----------------------------------|----------------------------------|
----------------------------------|----------------------------------|
----------------------------------|----------------------------------|
----------------------------------|----------------------------------|
--2-2-2-2-2-2-2-2-2-2-2-2-2-2-2-2-|--2-2-2-2-2-2-2-2-2-2-2-2-2-2-2-2-|
----------------------------------|----------------------------------|

-------------------|-------------------|-------------------|------------------|
-------------------|-------------------|-------------------|------------------|
-------------------|--------------5----|--4----------------|------------------|
--3----------------|--------------5----|--4----------------|------------------|
--3----------------|--------------3----|--2----------------|------------------|
--1----------------|-------------------|-------------------|------------------|

-------------------|-------------------|-------------------|
-------------------|-------------------|-------------------|
-------------------|--------------5----|--4----------------|
--3----------------|--------------5----|--4----------------|
--3----------------|--------------3----|--2----------------|
--1----------------|-------------------|-------------------|

-----------------------|----------------------------------|
-----------------------|----------------------------------|
-----------------------|----------------------------------|
-----------------------|----------------------------------|
-----3-------5----5----|----------------------------------|
--0--1----1--3----3----|--0-0-0-0-0-0-0-0-0-0-0-0-0-0-0-0-|

------------------------------|----------------------------------|
------------------------------|----------------------------------|
------------------------------|----------------------------------|
------------------4/-3--5/-4--|----------------------------------|
------------------2/-1--3/-2--|----------------------------------|
--0-0-0-0-0-0-0-0-------------|--0-0-0-0-0-0-0-0-0-0-0-0-0-0-0-0-|

----------------------------|----------------------------------|
----------------------------|----------------------------------|
----------------------------|----------------------------------|
------------------4---------|----------------------------------|
------------------2----4----|----------------------------------|
--0-0-0-0-0-0-0-0------2----|--0-0-0-0-0-0-0-0-0-0-0-0-0-0-0-0-|

------------------------------|----------------------------------|
------------------------------|----------------------------------|
------------------------------|----------------------------------|
------------------4/-3--5/-4--|----------------------------------|
------------------2/-1--3/-2--|----------------------------------|
--0-0-0-0-0-0-0-0-------------|--0-0-0-0-0-0-0-0-0-0-0-0-0-0-0-0-|

-------------------------|----------------------------------|
-------------------------|----------------------------------|
-------------------------|----------------------------------|
--3--3-----3--3-----4----|----------------------------------|
--1h-0-----1h-0-----2----|----------------------------------|
--------0--------0-------|--0-0-0-0-0-0-0-0-0-0-0-0-0-0-0-0-|

------------------------------|----------------------------------|
------------------------------|----------------------------------|
------------------------------|----------------------------------|
------------------4/-3--5/-4--|----------------------------------|
------------------2/-1--3/-2--|----------------------------------|
--0-0-0-0-0-0-0-0-------------|--0-0-0-0-0-0-0-0-0-0-0-0-0-0-0-0-|

----------------------------|----------------------------------|
----------------------------|----------------------------------|
----------------------------|----------------------------------|
------------------4---------|----------------------------------|
------------------2----4----|----------------------------------|
--0-0-0-0-0-0-0-0------2----|--0-0-0-0-0-0-0-0-0-0-0-0-0-0-0-0-|

------------------------------|----------------------------------|
------------------------------|----------------------------------|
------------------------------|----------------------------------|
------------------4/-3--5/-4--|----------------------------------|
------------------2/-1--3/-2--|----------------------------------|
--0-0-0-0-0-0-0-0-------------|--0-0-0-0-0-0-0-0-0-0-0-0-0-0-0-0-|

-------------------------|----------------------------------|
-------------------------|----------------------------------|
-------------------------|----------------------------------|
--3--3-----3--3-----4----|----------------------------------|
--1h-0-----1h-0-----2----|----------------------------------|
--------0--------0-------|--0-0-0-0-0-0-0-0-0-0-0-0-0-0-0-0-|

------------------------------|----------------------------------|
------------------------------|----------------------------------|
------------------------------|----------------------------------|
------------------4/-3--5/-4--|----------------------------------|
------------------2/-1--3/-2--|----------------------------------|
--0-0-0-0-0-0-0-0-------------|--0-0-0-0-0-0-0-0-0-0-0-0-0-0-0-0-|

----------------------------|----------------------------------|
----------------------------|----------------------------------|
----------------------------|----------------------------------|
------------------4---------|----------------------------------|
------------------2----4----|----------------------------------|
--0-0-0-0-0-0-0-0------2----|--0-0-0-0-0-0-0-0-0-0-0-0-0-0-0-0-|

------------------------------|----------------------------------|
------------------------------|----------------------------------|
------------------------------|----------------------------------|
------------------4/-3--5/-4--|----------------------------------|
------------------2/-1--3/-2--|----------------------------------|
--0-0-0-0-0-0-0-0-------------|--0-0-0-0-0-0-0-0-0-0-0-0-0-0-0-0-|

-------------------------|----------------------------------|
-------------------------|----------------------------------|
-------------------------|----------------------------------|
--3--3-----3--3-----4----|----------------------------------|
--1h-0-----1h-0-----2----|----------------------------------|
--------0--------0-------|--1-1-1-1-1-1-1-1-1-1-1-1-1-1-1-1-|

----------------------------------|----------------------------------|
----------------------------------|----------------------------------|
----------------------------------|----------------------------------|
----------------------------------|----------------------------------|
--------------------------3-3-3-3-|--2-2-2-2-2-2-2-2-2-2-2-2-2-2-2-2-|
--1-1-1-1-1-1-1-1-1-1-1-1---------|----------------------------------|

----------------------------------|----------------------------------|
----------------------------------|----------------------------------|
----------------------------------|----------------------------------|
----------------------------------|----------------------------------|
--2-2-2-2-2-2-2-2-2-2-2-2-2-2-2-2-|----------------------------------|
----------------------------------|--1-1-1-1-1-1-1-1-1-1-1-1-1-1-1-1-|

----------------------------------|----------------------------------|
----------------------------------|----------------------------------|
----------------------------------|----------------------------------|
----------------------------------|----------------------------------|
--------------------------3-3-3-3-|--2-2-2-2-2-2-2-2-2-2-2-2-2-2-2-2-|
--1-1-1-1-1-1-1-1-1-1-1-1---------|----------------------------------|

----------------------------------|-------------------|-------------------|
----------------------------------|-------------------|-------------------|
----------------------------------|-------------------|--------------5----|
----------------------------------|--3----------------|--------------5----|
--2-2-2-2-2-2-2-2-2-2-2-2-2-2-2-2-|--3----------------|--------------3----|
----------------------------------|--1----------------|-------------------|

-------------------|------------------|-------------------|-------------------|
-------------------|------------------|-------------------|-------------------|
--4----------------|------------------|-------------------|--------------5----|
--4----------------|------------------|--3----------------|--------------5----|
--2----------------|------------------|--3----------------|--------------3----|
-------------------|------------------|--1----------------|-------------------|

-------------------|-----------------------||---------------------------|
-------------------|-----------------------||---------------------------|
--4----------------|-----------------------||*--------------------------|
--4----------------|-----------------------||*--2-----------------------|
--2----------------|-----3-------5----5----||---2--2--2--2--2--2--2--2--|
-------------------|--0--1----1--3----3----||---0--0--0--0--0--0--0--0--|

--------------------------|--------------------------|
--------------------------|--------------------------|
--------------------------|--------------------------|
--------------------------|--------------------------|
--2--2--2--2--2--2--2--2--|--2--2--2--2--2--2--2--2--|
--0--0--0--0--0--0--0--0--|--0--0--0--0--0--0--0--0--|

--------------------------|--------------------------|
--------------------------|--------------------------|
--------------------------|--------------------------|
--------------------------|--------------------------|
--2--2--2--2--2--2--2--2--|--2--2--2--2--2--2--2--2--|
--0--0--0--0--0--0--0--0--|--0--0--0--0--0--0--0--0--|

--------------------------|--------------------------|
--------------------------|--------------------------|
--------------------------|--------------------------|
--------------------------|--------------------------|
--2--2--2--2--2--2--2--2--|--2--2--2--2--2--2--2--2--|
--0--0--0--0--0--0--0--0--|--0--0--0--0--0--0--0--0--|

--------------------------|--------------------------|-------------------------|
--------------------------|--------------------------|-------------------------|
--------------------------|--------------------------|-------------------------|
--------------------------|--10--9-----9--8-----5----|--2----------------------|
--2--2--2--2--2--2--2--2--|---------------------5----|--2----2--2--2--2--2--2--|
--0--0--0--0--0--0--0--0--|---------0--------0--3----|--0----0--0--0--0--0--0--|

--------------------------|-------------------------|--------------------------|
--------------------------|-------------------------|--------------------------|
--------------------------|-------------------------|--------------------------|
---------------------5----|--2----------------------|--10--9-----9--8-----5----|
--10--9-----9--8-----5----|--2----2--2--2--2--2--2--|---------------------5----|
---------0--------0--3----|--0----0--0--0--0--0--0--|---------0--------0--3----|

-------------------------|--------------------------|-------------------------|
-------------------------|--------------------------|-------------------------|
-------------------------|--------------------------|-------------------------|
--2----------------------|---------------------5----|--2----------------------|
--2----2--2--2--2--2--2--|--10--9-----9--8-----5----|--2----2--2--2--2--2--2--|
--0----0--0--0--0--0--0--|---------0--------0--3----|--0----0--0--0--0--0--0--|

--------------------------|-------------------------|--------------------------|
--------------------------|-------------------------|--------------------------|
--------------------------|-------------------------|--------------------------|
--10--9-----9--8-----5----|--2----------------------|---------------------5----|
---------------------5----|--2----2--2--2--2--2--2--|--10--9-----9--8-----5----|
---------0--------0--3----|--0----0--0--0--0--0--0--|---------0--------0--3----|

-------------------------|--------------------------|-------------------------|
-------------------------|--------------------------|-------------------------|
-------------------------|--------------------------|-------------------------|
--2----------------------|--10--9-----9--8-----5----|--2----------------------|
--2----2--2--2--2--2--2--|---------------------5----|--2----2--2--2--2--2--2--|
--0----0--0--0--0--0--0--|---------0--------0--3----|--0----0--0--0--0--0--0--|

--------------------------|-------------------------|-------------------|
--------------------------|-------------------------|-------------------|
--------------------------|-------------------------|-------------------|
---------------------5----|--2----------------------|--2----------------|
--10--9-----9--8-----5----|--2----2--2--2--2--2--2--|--2----------------|
---------0--------0--3----|--0----0--0--0--0--0--0--|--0----------------|

------------------|------------------|-------------------||--------------------|
------------------|------------------|-------------------||--------------------|
------------------|------------------|-------------------||*--9----------------|
------------------|------------------|--2----------------||*--9----------------|
------------------|------------------|--2----------------||---7----------------|
------------------|------------------|--0----------------||--------------------|

------------------|-------------------|------------------|--------------------|
------------------|-------------------|------------------|--------------------|
------------------|--8----------------|------------------|--------------------|
------------------|--8----------------|------------------|--10----------------|
------------------|--6----------------|------------------|--10----------------|
------------------|-------------------|------------------|--8-----------------|

------------------|-------------------|-------------------||
------------------|-------------------|-------------------||
------------------|-------------------|------------------*||
------------------|--9----------------|------------------*||
------------------|--9----------------|-------------------||
------------------|--7----------------|-------------------||

---------------------------------|--------------------------------|
---------------------------------|--------------------------------|
*--9--------------9--------------|--9--------------9--------------|
*--9--------------9--------------|--9--------------9--------------|
---7--7-7-7-7-7-7-7--7-7-7-7-7-7-|--7--7-7-7-7-7-7-7--7-7-7-7-7-7-|
---------------------------------|--------------------------------|

--------------------------------|--------------------------------|
--------------------------------|--------------------------------|
--8--------------8--------------|--8--------------8--------------|
--8--------------8--------------|--8--------------8--------------|
--6--6-6-6-6-6-6-6--6-6-6-6-6-6-|--6--6-6-6-6-6-6-6--6-6-6-6-6-6-|
--------------------------------|--------------------------------|

----------------------------------|----------------------------------|
----------------------------------|----------------------------------|
----------------------------------|----------------------------------|
--10--------------10--------------|--10--------------10--------------|
--10--------------10--------------|--10--------------10--------------|
--8---8-8-8-8-8-8-8---8-8-8-8-8-8-|--8---8-8-8-8-8-8-8---8-8-8-8-8-8-|

--------------------------------|---------------------------------||
--------------------------------|---------------------------------||
--------------------------------|--------------------------------*||
--9--------------9--------------|--9--------------9--------------*||
--9--------------9--------------|--9--------------9---------------||
--7--7-7-7-7-7-7-7--7-7-7-7-7-7-|--7--7-7-7-7-7-7-7--7-7-7-7-7-7--||

----------------------------------|--------------------------------------|
----------------------------------|--------------------------------------|
----------------------------------|--------------------------------------|
----------------------------------|------------------9-10-9-10-9-10-9-10-|
----------------------------------|--7-8-7-8-7-8-7-8---------------------|
--7-8-7-8-7-8-7-8-7-8-7-8-7-8-7-8-|--------------------------------------|


-
Composición de Chris Witchhunter Dudek / Frank Blackfire / Sodom / Tom Angelripper
Colaboración y revisión:
  • Junior Jr
347 vistas
    • ½ Tono
    • A
    • Bb
    • B
    • C
    • Db
    • D
    • Eb
    • E
    • F
    • F#
    • G
    • Ab
  • Agregar a la lista

    0 comentarios

    Ver todos los comentarios

    ¿Lograste tocar?

    2 Tocaron 0 Aún no

    ¡Graba un video tocando Agent Orange y envíanoslo!

    00:00 / 00:00
    Outros vídeos desta música
    Repetir Calidad Automático
    Outros vídeos desta música
    00:00 / 00:00
    Automático
    OK