Cifra Club

Baptism Of Fire

Sodom

Cifrado: Principal (guitarra y guitarra eléctrica)
tono: C
E||------------------------------|-----------------------|------------------|
B||------------------------------|-----------------------|------------------|
G||------------------------------|-----------------------|------------------|
D||------------------------------|-----------------------|------------------|
A||--2-2-2-2-3--3--2-2-2-2-3--3--|--2-2-2-2-2------------|------------------|
E||--0-0-0-0-1--1--0-0-0-0-1--1--|--0-0-0-0-0------------|------------------|


-----------------------|------------------|-----------------------|
-----------------------|------------------|-----------------------|
-----------------------|------------------|-----------------------|
-----------------------|------------------|-----------------------|
--2-2-2-2-3------------|------------------|--2-2-2-2-2------------|
--0-0-0-0-1------------|------------------|--0-0-0-0-0------------|

------------------|------------------------------|-----------------------|
------------------|------------------------------|-----------------------|
------------------|------------------------------|-----------------------|
------------------|------------------------------|-----------------------|
------------------|--2-2-2-2-3--3--2-2-2-2-3--3--|--2-2-2-2-2------------|
------------------|--0-0-0-0-1--1--0-0-0-0-1--1--|--0-0-0-0-0------------|

------------------|-------------------|------------------|
------------------|-------------------|------------------|
------------------|-------------------|------------------|
------------------|-------------------|------------------|
------------------|------3------------|------------------|
------------------|------1------------|------------------|

-----------------------|------------------|
-----------------------|------------------|
-----------------------|------------------|
-----------------------|------------------|
--2-2-2-2-2------------|------------------|
--0-0-0-0-0------------|------------------|

--------------------------------------|--------------------------------|
--------------------------------------|--------------------------------|
--------------------------------------|--------------------------------|
--------------------------------------|--------------------------------|
--2-2-2-2-3--3--2-2-2-2-3--3--2-2-2-2-|--2--------------2--------------|
--0-0-0-0-1--1--0-0-0-0-1--1--0-0-0-0-|--0--0-0-0-0-0-0-0--0-0-0-0-0-0-|

--------------------------------|--------------------------------|
--------------------------------|--------------------------------|
--------------------------------|--------------------------------|
--------------------------------|--------------------------------|
--2--------------2--------------|--3--------------3--------------|
--0--0-0-0-0-0-0-0--0-0-0-0-0-0-|--1--1-1-1-1-1-1-1--1-1-1-1-1-1-|

--------------------------------|--------------------------------|
--------------------------------|--------------------------------|
--------------------------------|--------------------------------|
--------------------------------|--------------------------------|
--3--------------3--------------|--2--------------2--------------|
--1--1-1-1-1-1-1-1--1-1-1-1-1-1-|--0--0-0-0-0-0-0-0--0-0-0-0-0-0-|

--------------------------------|--------------------------------|
--------------------------------|--------------------------------|
--------------------------------|--------------------------------|
--------------------------------|--3--------------3--------------|
--2--------------2--------------|--1--1-1-1-1-1-1-1--1-1-1-1-1-1-|
--0--0-0-0-0-0-0-0--0-0-0-0-0-0-|--------------------------------|

--------------------------------|-------------------|------------------|
--------------------------------|-------------------|------------------|
--------------------------------|-------------------|------------------|
--3--------------3--------------|-------------------|------------------|
--1--1-1-1-1-1-1-1--1-1-1-1-1-1-|--2----------------|------------------|
--------------------------------|--0----------------|------------------|

|-----------------------------------|----------------------------------|
|-----------------------------------|----------------------------------|
|*----------------------------------|----------------------------------|
|*----------------------------------|----------------------------------|
|-----------------------------------|----------------------------------|
|---0-0-0-0-0-0-0-0-0-0-0-0-0-0-0-0-|--0-0-0-0-0-0-0-0-2-2-2-2-2-2-2-2-|

----------------------------------|----------------------------------|
----------------------------------|----------------------------------|
----------------------------------|----------------------------------|
----------------------------------|----------------------------------|
--2-2-2-2-2-2-2-2-2-2-2-2-2-2-2-2-|--3-3-3-3-3-3-3-3-----------------|
----------------------------------|------------------2-2-2-2-2-2-2-2-|

----------------------------------|----------------------------------|
----------------------------------|----------------------------------|
----------------------------------|----------------------------------|
----------------------------------|----------------------------------|
----------------------------------|----------------------------------|
--0-0-0-0-0-0-0-0-0-0-0-0-0-0-0-0-|--0-0-0-0-0-0-0-0-2-2-2-2-2-2-2-2-|

----------------------------------|-----------------------------------||
----------------------------------|-----------------------------------||
----------------------------------|----------------------------------*||
----------------------------------|----------------------------------*||
--2-2-2-2-2-2-2-2-2-2-2-2-2-2-2-2-|--3-3-3-3-3-3-3-3-5-5-5-5-5-5-5-5--||
----------------------------------|-----------------------------------||

--------------------------------|-------------------------------|
--------------------------------|-------------------------------|
*-------------------------------|--7----------------------------|
*--2----------------------------|--7----------------------------|
---2----------------------------|--5----------------------------|
---0----0-0-0-0-0-0-0-0-0-0-0-0-|-------0-0-0-0-0-0-0-0-0-0-0-0-|

3x
-------------------------------|-----------------------------||
-------------------------------|-----------------------------||
--5----------------------------|--3-------------------------*||
--5----------------------------|--3------------5------------*||
--3----------------------------|--1------------5-------------||
-------0-0-0-0-0-0-0-0-0-0-0-0-|-------0-0-0-0-3----0-0-0-0--||

-------------------|------------------||-----------------------------------|
-------------------|------------------||-----------------------------------|
-------------------|------------------||*----------------------------------|
--2----------------|------------------||*----------------------------------|
--2----------------|------------------||-----------------------------------|
--0----------------|------------------||---0-0-0-0-0-0-0-0-0-0-0-0-0-0-0-0-|

----------------------------------|----------------------------------|
----------------------------------|----------------------------------|
----------------------------------|----------------------------------|
----------------------------------|----------------------------------|
----------------------------------|--2-2-2-2-2-2-2-2-2-2-2-2-2-2-2-2-|
--0-0-0-0-0-0-0-0-2-2-2-2-2-2-2-2-|----------------------------------|

----------------------------------|----------------------------------|
----------------------------------|----------------------------------|
----------------------------------|----------------------------------|
----------------------------------|----------------------------------|
--3-3-3-3-3-3-3-3-----------------|----------------------------------|
------------------2-2-2-2-2-2-2-2-|--0-0-0-0-0-0-0-0-0-0-0-0-0-0-0-0-|

----------------------------------|----------------------------------|
----------------------------------|----------------------------------|
----------------------------------|----------------------------------|
----------------------------------|----------------------------------|
----------------------------------|--2-2-2-2-2-2-2-2-2-2-2-2-2-2-2-2-|
--0-0-0-0-0-0-0-0-2-2-2-2-2-2-2-2-|----------------------------------|

-----------------------------------||--------------------------------|
-----------------------------------||--------------------------------|
----------------------------------*||*-------------------------------|
----------------------------------*||*--2----------------------------|
--3-3-3-3-3-3-3-3-5-5-5-5-5-5-5-5--||---2----------------------------|
-----------------------------------||---0----0-0-0-0-0-0-0-0-0-0-0-0-|

-------------------------------|-------------------------------|
-------------------------------|-------------------------------|
--7----------------------------|--5----------------------------|
--7----------------------------|--5----------------------------|
--5----------------------------|--3----------------------------|
-------0-0-0-0-0-0-0-0-0-0-0-0-|-------0-0-0-0-0-0-0-0-0-0-0-0-|

3x 
-----------------------------||-------------------|------------------|
-----------------------------||-------------------|------------------|
--3-------------------------*||-------------------|------------------|
--3------------5------------*||--2----------------|------------------|
--1------------5-------------||--2----------------|------------------|
-------0-0-0-0-3----0-0-0-0--||--0----------------|------------------|

|-----------------------------------|----------------------------------|
|-----------------------------------|----------------------------------|
|*----------------------------------|----------------------------------|
|*----------------------------------|----------------------------------|
|-----------------------------------|----------------------------------|
|---0-0-0-0-0-0-0-0-0-0-0-0-0-0-0-0-|--0-0-0-0-0-0-0-0-2-2-2-2-2-2-2-2-|

----------------------------------|----------------------------------|
----------------------------------|----------------------------------|
----------------------------------|----------------------------------|
----------------------------------|----------------------------------|
--2-2-2-2-2-2-2-2-2-2-2-2-2-2-2-2-|--3-3-3-3-3-3-3-3-----------------|
----------------------------------|------------------2-2-2-2-2-2-2-2-|

----------------------------------|----------------------------------|
----------------------------------|----------------------------------|
----------------------------------|----------------------------------|
----------------------------------|----------------------------------|
----------------------------------|----------------------------------|
--0-0-0-0-0-0-0-0-0-0-0-0-0-0-0-0-|--0-0-0-0-0-0-0-0-2-2-2-2-2-2-2-2-|

----------------------------------|-----------------------------------||
----------------------------------|-----------------------------------||
----------------------------------|----------------------------------*||
----------------------------------|----------------------------------*||
--2-2-2-2-2-2-2-2-2-2-2-2-2-2-2-2-|--3-3-3-3-3-3-3-3-5-5-5-5-5-5-5-5--||
----------------------------------|-----------------------------------||

-------------------|-------------------|-------------------|-------------------|
-------------------|-------------------|-------------------|-------------------|
-------------------|-------------------|-------------------|-------------------|
-------------------|--2----------------|-------------------|--2----------------|
--2----------------|--0----------------|--2----------------|--0----------------|
--0----------------|-------------------|--0----------------|-------------------|

-------------------|-------------------|-------------------|-------------------|
-------------------|-------------------|-------------------|-------------------|
-------------------|-------------------|-------------------|-------------------|
-------------------|--2----------------|-------------------|-------------------|
--2----------------|--0----------------|--5----------------|--4----------------|
--0----------------|-------------------|--3----------------|--2----------------|

-------------------|-------------------|-------------------|-------------------|
-------------------|-------------------|-------------------|-------------------|
-------------------|-------------------|-------------------|-------------------|
-------------------|--2----------------|-------------------|-------------------|
--2----------------|--0----------------|--2----------------|--5----------------|
--0----------------|-------------------|--0----------------|--3----------------|

-------------------|-------------------|-------------------|-------------------|
-------------------|-------------------|-------------------|-------------------|
-------------------|-------------------|-------------------|-------------------|
-------------------|--2----------------|-------------------|-------------------|
--2----------------|--0----------------|--5----------------|--4----------------|
--0----------------|-------------------|--3----------------|--2----------------|

|--------------------------------|-------------------------------|
|--------------------------------|-------------------------------|
|*-------------------------------|--7----------------------------|
|*--2----------------------------|--7----------------------------|
|---2----------------------------|--5----------------------------|
|---0----0-0-0-0-0-0-0-0-0-0-0-0-|-------0-0-0-0-0-0-0-0-0-0-0-0-|

3x
-------------------------------|-----------------------------||
-------------------------------|-----------------------------||
--5----------------------------|--3-------------------------*||
--5----------------------------|--3------------5------------*||
--3----------------------------|--1------------5-------------||
-------0-0-0-0-0-0-0-0-0-0-0-0-|-------0-0-0-0-3----0-0-0-0--||

-------------------|------------------||-----------------------------------|
-------------------|------------------||-----------------------------------|
-------------------|------------------||*----------------------------------|
--2----------------|------------------||*----------------------------------|
--2----------------|------------------||-----------------------------------|
--0----------------|------------------||---0-0-0-0-0-0-0-0-0-0-0-0-0-0-0-0-|

----------------------------------|----------------------------------|
----------------------------------|----------------------------------|
----------------------------------|----------------------------------|
----------------------------------|----------------------------------|
----------------------------------|--2-2-2-2-2-2-2-2-2-2-2-2-2-2-2-2-|
--0-0-0-0-0-0-0-0-2-2-2-2-2-2-2-2-|----------------------------------|

----------------------------------|----------------------------------|
----------------------------------|----------------------------------|
----------------------------------|----------------------------------|
----------------------------------|----------------------------------|
--3-3-3-3-3-3-3-3-----------------|----------------------------------|
------------------2-2-2-2-2-2-2-2-|--0-0-0-0-0-0-0-0-0-0-0-0-0-0-0-0-|

----------------------------------|----------------------------------|
----------------------------------|----------------------------------|
----------------------------------|----------------------------------|
----------------------------------|----------------------------------|
----------------------------------|--2-2-2-2-2-2-2-2-2-2-2-2-2-2-2-2-|
--0-0-0-0-0-0-0-0-2-2-2-2-2-2-2-2-|----------------------------------|

-----------------------------------||-------|------------------------------|
-----------------------------------||-------|------------------------------|
----------------------------------*||-------|------------------------------|
----------------------------------*||--2----|------------------------------|
--3-3-3-3-3-3-3-3-5-5-5-5-5-5-5-5--||--2----|--2-2-2-2-3--3--2-2-2-2-3--3--|
-----------------------------------||--0----|--0-0-0-0-1--1--0-0-0-0-1--1--|

-----------------------|-------------------|------------------|
-----------------------|-------------------|------------------|
-----------------------|-------------------|------------------|
-----------------------|-------------------|------------------|
--2-2-2-2-2------------|--2----------------|------------------|
--0-0-0-0-0------------|--0----------------|------------------|

------------------|-------------------||
------------------|-------------------||
------------------|-------------------||
------------------|-------------------||
------------------|--2----------------||
------------------|--0----------------||
Composición de Chris Witchhunter Dudek / Frank Blackfire / Sodom / Tom Angelripper
Colaboración y revisión:
  • Junior Jr
71 vistas
    • ½ Tono
    • A
    • Bb
    • B
    • C
    • Db
    • D
    • Eb
    • E
    • F
    • F#
    • G
    • Ab
  • Agregar a la lista

    0 comentarios

    Ver todos los comentarios

    ¿Lograste tocar?

    0 Tocaron 0 Aún no

    ¡Graba un video tocando Baptism Of Fire y envíanoslo!

    00:00 / 00:00
    Outros vídeos desta música
    Repetir Calidad Automático
    Outros vídeos desta música
    00:00 / 00:00
    Automático
    OK