Cifra Club

Burst Command Til War

Sodom

Tab de bajo: Principal
Tabber: Satan Man
His Email: *

Tuning Standard 4 string 

 Come in after guitar intro

Main Riff 
G------------------------------|
D------------------------------|
A-22222/3-222---0-22222/3-22---|
E-------------3--------------3-|

G------------------------------|
D------------------------------|
A-22222/3-222---0-22222/3-22---|
E-------------3--------------3-|


Verse 
G---------------------------------------------------------------------|
D---------------------------------------------------------------------|
A-22222222222222-000000000000000-222222222222222----------------------|
E------------------------------------------------3333333333333333-(3)-|


Main Riff 
G------------------------------|
D------------------------------|
A-22222/3-222---0-22222/3-22---|
E-------------3--------------3-|

G------------------------------|
D------------------------------|
A-22222/3-222---0-22222/3-22---|
E-------------3--------------3-|
 

Verse
G---------------------------------------------------------------------|
D---------------------------------------------------------------------|
A-22222222222222-000000000000000-222222222222222----------------------|
E------------------------------------------------3333333333333333-(3)-|


Main Riff
G------------------------------|
D------------------------------|
A-22222/3-222---0-22222/3-22---|
E-------------3--------------3-|

G------------------------------|
D------------------------------|
A-22222/3-222---0-22222/3-22---|
E-------------3--------------3-|

G------------------------------|
D------------------------------|
A-22222/3-222---0-22222/3-22---|
E-------------3--------------3-|

G------------------------------|
D------------------------------|
A-22222/3-222---0-22222/3-22---|
E-------------3--------------3-|
 

Verse
G---------------------------------------------------------------------|
D---------------------------------------------------------------------|
A-22222222222222-000000000000000-222222222222222----------------------|
E------------------------------------------------3333333333333333-(3)-|


Main Riff 
G------------------------------|
D------------------------------|
A-22222/3-222---0-22222/3-22---|
E-------------3--------------3-|

G------------------------------|
D------------------------------|
A-22222/3-222---0-22222/3-22---|
E-------------3--------------3-|

G------------------------------|
D------------------------------|
A-22222/3-222---0-22222/3-22---|
E-------------3--------------3-|

G------------------------------|
D------------------------------|
A-22222/3-222---0-22222/3-22---|
E-------------3--------------3-|
 
G-----------------------------------|
D-----------------------------------|
A-22222/3-222---0-22222/3-222-------|
E-------------3---------------3-(3)-|

G------------------------------|
D------------------------------|
A-22222/3-222---0-22222/3-22---|
E-------------3--------------3-|

G------------------------------|
D------------------------------|
A-22222/3-222---0-22222/3-22---|
E-------------3--------------3-|

G------------------------------|
D------------------------------|
A-22222/3-222---0-22222/3-22---|
E-------------3--------------3-|

G------------------------------|
D------------------------------|
A-22222/3-222---0-22222/3-22---|
E-------------3--------------3-|

G-----------------------------------|
D-----------------------------------|
A-22222/3-222---0-22222/3-222-------|
E-------------3---------------3-(3)-|
Composición de Sodom
25 vistas

0 comentarios

Ver todos los comentarios

¿Lograste tocar?

0 Tocaron 0 Aún no

¡Graba un video tocando Burst Command Til War y envíanoslo!

00:00 / 00:00
Otros videos de esta canción
Repetir Calidad Automático
Otros videos de esta canción
00:00 / 00:00
Automático
OK