Cifra Club

Code Red

Sodom

Cifrado: Principal (guitarra y guitarra eléctrica)
tono: E
D||------24r-----------|---------------------|-------------------|
A||--------------------|---------------------|-------------------|
F||--------------------|---------------------|-------------------|
C||--------------------|---------------------|--------------4----|
G||--------------------|-------7--6~---------|--------------2----|
D||--------------------|--0------------------|-------------------|


-------------------|------------------|---------------------|
-------------------|------------------|---------------------|
-------------------|------------------|---------------------|
--5----------------|------------------|---------------------|
--3----------------|------------------|-------7--6~---------|
-------------------|------------------|--0------------------|

-------------------|-------------------|------------------|
-------------------|-------------------|------------------|
-------------------|-------------------|------------------|
--------------4----|--5----------------|------------------|
--------------2----|--3----------------|------------------|
-------------------|-------------------|------------------|

--------------------------|--------------------------|
--------------------------|--------------------------|
--------------------------|--------------------------|
--------------------------|--------------------------|
--------7--6--------2--3--|--------7--6--------2--3--|
--0--0--------0--0--------|--0--0--------0--1--------|

--------------------------|--------------------------|
--------------------------|--------------------------|
--------------------------|--------------------------|
--------------------------|--------------------------|
--------7--6--------2--3--|--------7--6--------2--3--|
--0--0--------0--0--------|--0--0--------0--1--------|

--------------------------|--------------------------|
--------------------------|--------------------------|
--------------------------|--------------------------|
--------------------------|--------------------------|
--------7--6--------2--3--|--------7--6--------2--3--|
--0--0--------0--0--------|--0--0--------0--1--------|

--------------------------|--------------------------|
--------------------------|--------------------------|
--------------------------|--------------------------|
--------------------------|--------------------------|
--------7--6--------2--3--|--------7--6--------2--3--|
--0--0--------0--0--------|--0--0--------0--1--------|

--------------------------|--------------------------|
--------------------------|--------------------------|
--------------------------|--------------------------|
-----9--8-----4--5-----9--|--8-----4--5--------------|
-----7--6-----2--3-----7--|--6-----2--3--3--3--3--3--|
--0--------0--------0-----|-----0--------1--1--1--1--|

--------------------------|--------------------------|
--------------------------|--------------------------|
--------------------------|--------------------------|
-----9--8-----4--5-----9--|--8-----4--5--------------|
-----7--6-----2--3-----7--|--6-----2--3--3--3--3--3--|
--0--------0--------0-----|-----0--------1--1--1--1--|

--------------------------|--------------------------|
--------------------------|--------------------------|
--------------------------|--------------------------|
-----9--8-----4--5-----9--|--8-----4--5--------------|
-----7--6-----2--3-----7--|--6-----2--3--3--3--3--3--|
--0--------0--------0-----|-----0--------1--1--1--1--|

--------------------------|-----------|------------------|------------------|
--------------------------|-----------|------------------|------------------|
--------------------------|-----------|------------------|------------------|
-----9--8-----4--5-----9--|--8--------|------------------|------------------|
-----7--6-----2--3-----7--|--6--------|------------------|------------------|
--0--------0--------0-----|-----------|------------------|------------------|

------------------|------------------|------------------|--------------------|
------------------|------------------|------------------|--12r---------------|
------------------|------------------|------------------|--------------------|
------------------|------------------|------------------|--------------------|
------------------|------------------|------------------|--------------------|
------------------|------------------|------------------|--------------------|

--------------------|------------------|--14--11--13--10--12--9--11--8--|
--14----------------|------------------|--------------------------------|
--------------------|------------------|--------------------------------|
--------------------|------------------|--------------------------------|
--------------------|------------------|--------------------------------|
--------------------|------------------|--------------------------------|

--10--7--9--6--8--5--7--4--|--6--3--5--2--4--1--3--0--|
---------------------------|--------------------------|
---------------------------|--------------------------|
---------------------------|--------------------------|
---------------------------|--------------------------|
---------------------------|--------------------------|

--3--0--4--1--3--0--4--1--|-------------------|------------------|
--------------------------|-------------------|------------------|
--------------------------|--0b---------------|------------------|
--------------------------|-------------------|------------------|
--------------------------|-------------------|------------------|
--------------------------|-------------------|------------------|

------------------|------------------|--24----------------|------------------|
------------------|------------------|--------------------|------------------|
------------------|------------------|--------------------|------------------|
------------------|------------------|--------------------|------------------|
------------------|------------------|--------------------|------------------|
------------------|------------------|--------------------|------------------|

------------------|------------------|---------------------------------|
------------------|------------------|---------------------------------|
------------------|------------------|---------------------------------|
------------------|------------------|---------------------------------|
------------------|------------------|--2------------------------------|
------------------|------------------|--0--0-0-0-0-0-0-0-0-0-0-0-0-0-0-|

---------------------------------|---------------------------------|
---------------------------------|---------------------------------|
---------------------------------|---------------------------------|
---------------------------------|---------------------------------|
--2------------------------------|--2------------------------------|
--0--0-0-0-0-0-0-0-0-0-0-0-0-0-0-|--0--0-0-0-0-0-0-0-0-0-0-0-0-0-0-|

------------------------------|---------------------------------|
------------------------------|---------------------------------|
------------------------------|---------------------------------|
-------------------------5----|---------------------------------|
--2----------------------3----|--2------------------------------|
--0--0-0-0-0-0-0-0-0-0-0------|--0--0-0-0-0-0-0-0-0-0-0-0-0-0-0-|

---------------------------------|---------------------------------|
---------------------------------|---------------------------------|
---------------------------------|---------------------------------|
---------------------------------|---------------------------------|
--2------------------------------|--2------------------------------|
--0--0-0-0-0-0-0-0-0-0-0-0-0-0-0-|--0--0-0-0-0-0-0-0-0-0-0-0-0-0-0-|

---------------------------|---------------------------------|
---------------------------|---------------------------------|
---------------------------|---------------------------------|
-----------------7----2----|---------------------------------|
--2--------------5----0----|--2------------------------------|
--0--0-0-0-0-0-0-----------|--0--0-0-0-0-0-0-0-0-0-0-0-0-0-0-|

---------------------------------|---------------------------------|
---------------------------------|---------------------------------|
---------------------------------|---------------------------------|
---------------------------------|---------------------------------|
--2------------------------------|--2------------------------------|
--0--0-0-0-0-0-0-0-0-0-0-0-0-0-0-|--0--0-0-0-0-0-0-0-0-0-0-0-0-0-0-|

------------------------------|---------------------------------|
------------------------------|---------------------------------|
------------------------------|---------------------------------|
-------------------------5----|---------------------------------|
--2----------------------3----|--2------------------------------|
--0--0-0-0-0-0-0-0-0-0-0------|--0--0-0-0-0-0-0-0-0-0-0-0-0-0-0-|

---------------------------------|---------------------------------|
---------------------------------|---------------------------------|
---------------------------------|---------------------------------|
---------------------------------|---------------------------------|
--2------------------------------|--2------------------------------|
--0--0-0-0-0-0-0-0-0-0-0-0-0-0-0-|--0--0-0-0-0-0-0-0-0-0-0-0-0-0-0-|

---------------------------|---------------------------------|
---------------------------|---------------------------------|
---------------------------|---------------------------------|
-----------------7----2----|---------------------------------|
--2--------------5----0----|--5------------------------------|
--0--0-0-0-0-0-0-----------|-----3-3-3-3-3-3-3-3-3-3-3-3-3-3-|

---------------------------------|---------------------------------|
---------------------------------|---------------------------------|
---------------------------------|---------------------------------|
---------------------------------|---------------------------------|
--5------------------------------|--5------------------------------|
-----3-3-3-3-3-3-3-3-3-3-3-3-3-3-|-----3-3-3-3-3-3-3-3-3-3-3-3-3-3-|

---------------------------------|---------------------------------|
---------------------------------|---------------------------------|
---------------------------------|---------------------------------|
---------------------------------|---------------------------------|
--5------------------------------|--2------------------------------|
-----3-3-3-3-3-3-3-3-3-3-3-3-3-3-|--0--0-0-0-0-0-0-0-0-0-0-0-0-0-0-|

---------------------------------|---------------------------------|
---------------------------------|---------------------------------|
---------------------------------|---------------------------------|
---------------------------------|---------------------------------|
--2------------------------------|--2------------------------------|
--0--0-0-0-0-0-0-0-0-0-0-0-0-0-0-|--0--0-0-0-0-0-0-0-0-0-0-0-0-0-0-|

------------------------------|---------------------------------|
------------------------------|---------------------------------|
------------------------------|---------------------------------|
-------------------------5----|---------------------------------|
--2----------------------3----|--2------------------------------|
--0--0-0-0-0-0-0-0-0-0-0------|--0--0-0-0-0-0-0-0-0-0-0-0-0-0-0-|

---------------------------------|---------------------------------|
---------------------------------|---------------------------------|
---------------------------------|---------------------------------|
---------------------------------|---------------------------------|
--2------------------------------|--2------------------------------|
--0--0-0-0-0-0-0-0-0-0-0-0-0-0-0-|--0--0-0-0-0-0-0-0-0-0-0-0-0-0-0-|

---------------------------|--------------------|--------------------------|
---------------------------|--------------------|--------------------------|
---------------------------|--------------------|--------------------------|
-----------------7----2----|--------------------|--------------------------|
--2--------------5----0----|--2--2--------------|--2--8--7--2--2--3--4--5--|
--0--0-0-0-0-0-0-----------|--0--0--------------|--0--6--5--0--0--1--2--3--|

--------------------------|--------------------------|
--------------------------|--------------------------|
--------------------------|--------------------------|
--------------------------|--------------------------|
--2--8--7--2--2--3--4--5--|--2--8--7--2--2--3--4--5--|
--0--6--5--0--0--1--2--3--|--0--6--5--0--0--1--2--3--|

--------------------------|--------------------|-------------------|
--------------------------|--------------------|-------------------|
--------------------------|--------------------|-------------------|
--------------------------|--------------------|-------------------|
--2--8--7--2--2--3--4--5--|--2--2--------------|--2----------------|
--0--6--5--0--0--1--2--3--|--0--0--------------|--0----------------|

---------------------------------|---------------------------------|
---------------------------------|---------------------------------|
---------------------------------|---------------------------------|
---------------------------------|---------------------------------|
--2------------------------------|--2------------------------------|
--0--0-0-0-0-0-0-0-0-0-0-0-0-0-0-|--0--0-0-0-0-0-0-0-0-0-0-0-0-0-0-|

---------------------------------|------------------------------|
---------------------------------|------------------------------|
---------------------------------|------------------------------|
---------------------------------|-------------------------5----|
--2------------------------------|--2----------------------3----|
--0--0-0-0-0-0-0-0-0-0-0-0-0-0-0-|--0--0-0-0-0-0-0-0-0-0-0------|

---------------------------------|---------------------------------|
---------------------------------|---------------------------------|
---------------------------------|---------------------------------|
---------------------------------|---------------------------------|
--2------------------------------|--2------------------------------|
--0--0-0-0-0-0-0-0-0-0-0-0-0-0-0-|--0--0-0-0-0-0-0-0-0-0-0-0-0-0-0-|

---------------------------------|---------------------------|
---------------------------------|---------------------------|
---------------------------------|---------------------------|
---------------------------------|-----------------7----2----|
--2------------------------------|--2--------------5----0----|
--0--0-0-0-0-0-0-0-0-0-0-0-0-0-0-|--0--0-0-0-0-0-0-----------|

---------------------------------|---------------------------------|
---------------------------------|---------------------------------|
---------------------------------|---------------------------------|
---------------------------------|---------------------------------|
--2------------------------------|--2------------------------------|
--0--0-0-0-0-0-0-0-0-0-0-0-0-0-0-|--0--0-0-0-0-0-0-0-0-0-0-0-0-0-0-|

---------------------------------|------------------------------|
---------------------------------|------------------------------|
---------------------------------|------------------------------|
---------------------------------|-------------------------5----|
--2------------------------------|--2----------------------3----|
--0--0-0-0-0-0-0-0-0-0-0-0-0-0-0-|--0--0-0-0-0-0-0-0-0-0-0------|

---------------------------------|---------------------------------|
---------------------------------|---------------------------------|
---------------------------------|---------------------------------|
---------------------------------|---------------------------------|
--2------------------------------|--2------------------------------|
--0--0-0-0-0-0-0-0-0-0-0-0-0-0-0-|--0--0-0-0-0-0-0-0-0-0-0-0-0-0-0-|

---------------------------------|---------------------------|
---------------------------------|---------------------------|
---------------------------------|---------------------------|
---------------------------------|-----------------7----2----|
--2------------------------------|--2--------------5----0----|
--0--0-0-0-0-0-0-0-0-0-0-0-0-0-0-|--0--0-0-0-0-0-0-----------|

---------------------------------|---------------------------------|
---------------------------------|---------------------------------|
---------------------------------|---------------------------------|
---------------------------------|---------------------------------|
--5------------------------------|--5------------------------------|
-----3-3-3-3-3-3-3-3-3-3-3-3-3-3-|-----3-3-3-3-3-3-3-3-3-3-3-3-3-3-|

---------------------------------|---------------------------------|
---------------------------------|---------------------------------|
---------------------------------|---------------------------------|
---------------------------------|---------------------------------|
--5------------------------------|--5------------------------------|
-----3-3-3-3-3-3-3-3-3-3-3-3-3-3-|-----3-3-3-3-3-3-3-3-3-3-3-3-3-3-|

---------------------------------|---------------------------------|
---------------------------------|---------------------------------|
---------------------------------|---------------------------------|
---------------------------------|---------------------------------|
--2------------------------------|--2------------------------------|
--0--0-0-0-0-0-0-0-0-0-0-0-0-0-0-|--0--0-0-0-0-0-0-0-0-0-0-0-0-0-0-|

---------------------------------|------------------------------|
---------------------------------|------------------------------|
---------------------------------|------------------------------|
---------------------------------|-------------------------5----|
--2------------------------------|--2----------------------3----|
--0--0-0-0-0-0-0-0-0-0-0-0-0-0-0-|--0--0-0-0-0-0-0-0-0-0-0------|

---------------------------------|---------------------------------|
---------------------------------|---------------------------------|
---------------------------------|---------------------------------|
---------------------------------|---------------------------------|
--2------------------------------|--2------------------------------|
--0--0-0-0-0-0-0-0-0-0-0-0-0-0-0-|--0--0-0-0-0-0-0-0-0-0-0-0-0-0-0-|

---------------------------------|---------------------------|
---------------------------------|---------------------------|
---------------------------------|---------------------------|
---------------------------------|-----------------7----2----|
--2------------------------------|--2--------------5----0----|
--0--0-0-0-0-0-0-0-0-0-0-0-0-0-0-|--0--0-0-0-0-0-0-----------|

--------------------|--------------------------|--------------------------|
--------------------|--------------------------|--------------------------|
--------------------|--------------------------|--------------------------|
--------------------|--------------------------|--------------------------|
--2--2--------------|--2--8--7--2--2--3--4--5--|--2--8--7--2--2--3--4--5--|
--0--0--------------|--0--6--5--0--0--1--2--3--|--0--6--5--0--0--1--2--3--|

--------------------------|--------------------------|-------------------|
--------------------------|--------------------------|-------------------|
--------------------------|--------------------------|-------------------|
--------------------------|--------------------------|--2----------------|
--2--8--7--2--2--3--4--5--|--2--8--7--2--2--3--4--5--|--2----------------|
--0--6--5--0--0--1--2--3--|--0--6--5--0--0--1--2--3--|--0----------------|

------------------|-------------------------------|
------------------|-------------------------------|
------------------|-------------------------------|
------------------|--9------9--8------------------|
------------------|--7--7-7-7--6------------------|
------------------|---------------0-0-0-0-0-0-0-0-|

-------------------------------|-------------------------------|
-------------------------------|-------------------------------|
-------------------------------|-------------------------------|
--9------9--8--8-9-------------|--9------9--8------------------|
--7--7-7-7--6--6-7-------------|--7--7-7-7--6------------------|
-------------------0-0-0-0-0-0-|---------------0-0-0-0-0-0-0-0-|

-------------------------------|-------------------------------|
-------------------------------|-------------------------------|
-------------------------------|-------------------------------|
--9------9--8--8-9-------------|--9------9--8------------------|
--7--7-7-7--6--6-7-------------|--7--7-7-7--6------------------|
-------------------0-0-0-0-0-0-|---------------0-0-0-0-0-0-0-0-|

-------------------------------|-------------------------------|
-------------------------------|-------------------------------|
-------------------------------|-------------------------------|
--9------9--8--8-9-------------|--9------9--8------------------|
--7--7-7-7--6--6-7-------------|--7--7-7-7--6------------------|
-------------------0-0-0-0-0-0-|---------------0-0-0-0-0-0-0-0-|

-------------------------------|----------------------------|
-------------------------------|----------------------------|
-------------------------------|----------------------------|
--9------9--8--8-9-------------|--3--2----------------------|
--7--7-7-7--6--6-7-------------|--3--2----------------------|
-------------------0-0-0-0-0-0-|--------0--0--0--0--0-0-0-0-|

----------------------------|----------------------------|
----------------------------|----------------------------|
----------------------------|----------------------------|
--3--2----------------------|--3--2----------------------|
--3--2----------------------|--3--2----------------------|
--------0--0--0--0--0-0-0-0-|--------0--0--0--0--0-0-0-0-|

--------------------------|----------------------------|
--------------------------|----------------------------|
--------------------------|----------------------------|
--3--2-2-2-2--------------|--3--2----------------------|
--3--2-2-2-2-----3b-------|--3--2----------------------|
--------------0-----------|--------0--0--0--0--0-0-0-0-|

----------------------------|----------------------------|
----------------------------|----------------------------|
----------------------------|----------------------------|
--3--2----------------------|--3--2----------------------|
--3--2----------------------|--3--2----------------------|
--------0--0--0--0--0-0-0-0-|--------0--0--0--0--0-0-0-0-|

--------------------------|----------------------------------|
--------------------------|----------------------------------|
--------------------------|----------------------------------|
--3--2-2-2-2--------------|----------------------------------|
00:00 / 00:00
Otros videos de esta canción
Repetir
Otros videos de esta canción
Composición de Tom Angelripper
Colaboración y revisión:
  • Junior Jr
44 vistas
    • ½ Tono
    • A
    • Bb
    • B
    • C
    • Db
    • D
    • Eb
    • E
    • F
    • F#
    • G
    • Ab
  • Agregar a la lista

    0 comentarios

    Ver todos los comentarios

    ¿Lograste tocar?

    0 Tocaron 0 Aún no

    ¡Graba un video tocando Code Red y envíanoslo!

    00:00 / 00:00
    OK