Cifra Club

Deathlike Silence

Sodom

Cifrado: Principal (guitarra y guitarra eléctrica)
tono: G
Riff 1

E|-------------------------------------------------------------------------------------
B|-------------------------------------------------------------------------------------
G|----------------------------------5-4-5----------------------------------10--10--10--
D|-------8----------8----------8----5-4-5-------8----------8----------8----10--10--10--
A|-55-55---55-55-55---55-55-55---55-3-2-3-55-55---55-55-55---55-55-55---55-8 --8 --8 --
E|-------------------------------------------------------------------------------------
                                    |-3-|

Riff 1A

E|--------------------------------------------------------------------------------------------------------------------
B|--------------------------------------------------------------------------------------------------------------------
G|----------------------------------5--4-5----------------------------------10--10--10--12------14------7------5------
D|-------8----------8----------8----5--4-5-------8----------8----------8----10--10--10--12------14------7------5------
A|-55-55---55-55-55---55-55-55---55-3--2-3-55-55---55-55-55---55-55-55---55-8 --8 --8 --10------12------5------3------
E|--------------------------------------------------------------------------------------------------------------------

Riff 2

E|---------------------------------------------
B|---------------------------------------------
G|-------2----------3----------2----------3--2-
D|-------2----------3----------2----------3--2-
A|---------------------------------------------
E|-0-0-0----0-0-0-0----0-0-0-0----0-0-0-0------

Riff 3A

E|----------------------------------------------------------------------------
B|----------------------------------------------------------------------------
G|--------------9----9----7----7----7----7----9----9----9----9----12----10----
D|--------------9----9----7----7----7----7----9----9----9----9----12----10----
A|-5h7----------7----7----5----5----5----5----7----7----7----7----10----8 ----
E|-----00-00-00---00---00---00---00---00---00---00---00---00---00-------------

E|------------------------------------------------------------------------
B|------------------------------------------------------------------------
G|-7----7----7----7----5----5----5----5----7----7----7----7----10----9----
D|-7----7----7----7----5----5----5----5----7----7----7----7----10----9----
A|-5-00-5-00-5-00-5-00-3-00-3-00-3-00-3-00-5-00-5-00-5-00-5-00-8 ----7----
E|------------------------------------------------------------------------

E|-----------------------------------------------------------------------
B|-----------------------------------------------------------------------
G|-5----5----5----5----4----4----4----4----5----5----5----5----7----9----
D|-5----5----5----5----4----4----4----4----5----5----5----5----7----9----
A|-3-00-3-00-3-00-3-00-2-00-2-00-2-00-2-00-3-00-3-00-3-00-3-00-5----7----
E|-----------------------------------------------------------------------

E|-------------------------------------------------------------------------
B|-------------------------------------------------------------------------
G|-9----9----9----9----7----7----7----7----9----9----9----9----12----10----
D|-9----9----9----9----7----7----7----7----9----9----9----9----12----10----
A|-7-00-7-00-7-00-7-00-5-00-5-00-5-00-5-00-7-00-7-00-7-00-7-00-10----8 ----
E|-------------------------------------------------------------------------

Riff 3

E|-------------------------------------------------------------------------
B|-------------------------------------------------------------------------
G|-9----9----9----9----7----7----7----7----9----9----9----9----12----10----
D|-9----9----9----9----7----7----7----7----9----9----9----9----12----10----
A|-7-00-7-00-7-00-7-00-5-00-5-00-5-00-5-00-7-00-7-00-7-00-7-00-10----8 ----
E|-------------------------------------------------------------------------

E|------------------------------------------------------------------------
B|------------------------------------------------------------------------
G|-7----7----7----7----5----5----5----5----7----7----7----7----10----9----
D|-7----7----7----7----5----5----5----5----7----7----7----7----10----9----
A|-5-00-5-00-5-00-5-00-3-00-3-00-3-00-3-00-5-00-5-00-5-00-5-00-8 ----7----
E|------------------------------------------------------------------------

E|-----------------------------------------------------------------------
B|-----------------------------------------------------------------------
G|-5----5----5----5----4----4----4----4----5----5----5----5----7----9----
D|-5----5----5----5----4----4----4----4----5----5----5----5----7----9----
A|-3-00-3-00-3-00-3-00-2-00-2-00-2-00-2-00-3-00-3-00-3-00-3-00-5----7----
E|-----------------------------------------------------------------------

E|-------------------------------------------------------------------------
B|-------------------------------------------------------------------------
G|-9----9----9----9----7----7----7----7----9----9----9----9----12----10----
D|-9----9----9----9----7----7----7----7----9----9----9----9----12----10----
A|-7-00-7-00-7-00-7-00-5-00-5-00-5-00-5-00-7-00-7-00-7-00-7-00-10----8 ----
E|-------------------------------------------------------------------------

Riff 3B

E|-------------------------------------------------------------------------
B|-------------------------------------------------------------------------
G|-9----9----9----9----7----7----7----7----9----9----9----9----12----10----
D|-9----9----9----9----7----7----7----7----9----9----9----9----12----10----
A|-7-00-7-00-7-00-7-00-5-00-5-00-5-00-5-00-7-00-7-00-7-00-7-00-10----8 ----
E|-------------------------------------------------------------------------

E|------------------------------------------------------------------------
B|------------------------------------------------------------------------
G|-7----7----7----7----5----5----5----5----7----7----7----7----10----9----
D|-7----7----7----7----5----5----5----5----7----7----7----7----10----9----
A|-5-00-5-00-5-00-5-00-3-00-3-00-3-00-3-00-5-00-5-00-5-00-5-00-8 ----7----
E|------------------------------------------------------------------------

E|-----------------------------------------------------------------------
B|-----------------------------------------------------------------------
G|-5----5----5----5----4----4----4----4----5----5----5----5----7----9----
D|-5----5----5----5----4----4----4----4----5----5----5----5----7----9----
A|-3-00-3-00-3-00-3-00-2-00-2-00-2-00-2-00-3-00-3-00-3-00-3-00-5----7----
E|-----------------------------------------------------------------------

Riff 4

E|------------------------------------------------------------------------------------------
B|------------------------------------------------------------------------------------------
G|------------------------------------------------------------------------------------------
D|---------------------------------------------------------------------7---------9----------
A|---------------------------------------------------------------------7---------9----------
E|-0-33-33-33-33-33-33-33-0-22-22-22-22-22-22-22-0-33-33-33-33-33-33-0-5-55-55-0-7-77-77-77-

E|-------------------------------------------------------------------------------------
B|-------------------------------------------------------------------------------------
G|-------------------------------------------------------------------------------------
D|--------------------------------------------------------------------------------3-2--
A|------------------------------------------------------------------------3-2---0------
E|-0-33-33-33-33-33-33-33-0-22-22-22-22-22-22-22-0-33-33-33-33-33-33-33-0-----3--------

Outro

E|---- ---
B|---- ---
G|-9*- -9-
D|-9*- -9-
A|-7*- -7-
E|---- ---

Order

Riff 1 x 3
Riff 1A x 1
Riff 2 x 3
Riff 1 x 3
Riff 1A x 1
Riff 2 x 3
Riff 3A x 1
Solo over Riff 3 x 1
Riff 3B x 1
Riff 4 x 3
Riff 1 x 3
Riff 1A x 1
Riff 2 x 3
Riff 4 x 3
Riff 2 x 3
Riff 3 x 1
Solo over Riff 3 x 1
Riff 3B x 1
Outro x 1
Compositor não encontrado.
Colaboración y revisión:
  • thrasher_ holocaust
32 vistas
    • ½ Tono
    • A
    • Bb
    • B
    • C
    • Db
    • D
    • Eb
    • E
    • F
    • F#
    • G
    • Ab
  • Agregar a la lista

    0 comentarios

    Ver todos los comentarios

    ¿Lograste tocar?

    1 Tocaron 0 Aún no

    ¡Graba un video tocando Deathlike Silence y envíanoslo!

    00:00 / 00:00
    Outros vídeos desta música
    Repetir Calidad Automático
    Outros vídeos desta música
    00:00 / 00:00
    Automático
    OK